  0
SECTION
  2
HEADER
  9
$ACADVER
  1
AC1021
  9
$ACADMAINTVER
 70
     1
  9
$DWGCODEPAGE
  3
ANSI_1252
  9
$LASTSAVEDBY
  1
Vicente
  9
$INSBASE
 10
0.0
 20
0.0
 30
0.0
  9
$EXTMIN
 10
9.152784223425996
 20
5.802296080866431
 30
0.0
  9
$EXTMAX
 10
257.1889927861644
 20
76.41242322466112
 30
0.0
  9
$LIMMIN
 10
0.0
 20
0.0
  9
$LIMMAX
 10
12.0
 20
9.0
  9
$ORTHOMODE
 70
     1
  9
$REGENMODE
 70
     1
  9
$FILLMODE
 70
     1
  9
$QTEXTMODE
 70
     0
  9
$MIRRTEXT
 70
     0
  9
$LTSCALE
 40
1.0
  9
$ATTMODE
 70
     1
  9
$TEXTSIZE
 40
0.2
  9
$TRACEWID
 40
0.05
  9
$TEXTSTYLE
  7
Standard
  9
$CLAYER
  8
0
  9
$CELTYPE
  6
ByLayer
  9
$CECOLOR
 62
   256
  9
$CELTSCALE
 40
1.0
  9
$DISPSILH
 70
     0
  9
$DIMSCALE
 40
10.0
  9
$DIMASZ
 40
0.18
  9
$DIMEXO
 40
0.0625
  9
$DIMDLI
 40
0.38
  9
$DIMRND
 40
0.0
  9
$DIMDLE
 40
0.0
  9
$DIMEXE
 40
0.18
  9
$DIMTP
 40
0.0
  9
$DIMTM
 40
0.0
  9
$DIMTXT
 40
0.18
  9
$DIMCEN
 40
0.09
  9
$DIMTSZ
 40
0.0
  9
$DIMTOL
 70
     0
  9
$DIMLIM
 70
     0
  9
$DIMTIH
 70
     1
  9
$DIMTOH
 70
     1
  9
$DIMSE1
 70
     0
  9
$DIMSE2
 70
     0
  9
$DIMTAD
 70
     0
  9
$DIMZIN
 70
     0
  9
$DIMBLK
  1

  9
$DIMASO
 70
     1
  9
$DIMSHO
 70
     1
  9
$DIMPOST
  1

  9
$DIMAPOST
  1

  9
$DIMALT
 70
     0
  9
$DIMALTD
 70
     2
  9
$DIMALTF
 40
25.4
  9
$DIMLFAC
 40
1.0
  9
$DIMTOFL
 70
     0
  9
$DIMTVP
 40
0.0
  9
$DIMTIX
 70
     0
  9
$DIMSOXD
 70
     0
  9
$DIMSAH
 70
     0
  9
$DIMBLK1
  1

  9
$DIMBLK2
  1

  9
$DIMSTYLE
  2
Standard
  9
$DIMCLRD
 70
     0
  9
$DIMCLRE
 70
     0
  9
$DIMCLRT
 70
     0
  9
$DIMTFAC
 40
1.0
  9
$DIMGAP
 40
0.09
  9
$DIMJUST
 70
     0
  9
$DIMSD1
 70
     0
  9
$DIMSD2
 70
     0
  9
$DIMTOLJ
 70
     1
  9
$DIMTZIN
 70
     0
  9
$DIMALTZ
 70
     0
  9
$DIMALTTZ
 70
     0
  9
$DIMUPT
 70
     0
  9
$DIMDEC
 70
     2
  9
$DIMTDEC
 70
     2
  9
$DIMALTU
 70
     2
  9
$DIMALTTD
 70
     2
  9
$DIMTXSTY
  7
Standard
  9
$DIMAUNIT
 70
     0
  9
$DIMADEC
 70
     1
  9
$DIMALTRND
 40
0.0
  9
$DIMAZIN
 70
     0
  9
$DIMDSEP
 70
    46
  9
$DIMATFIT
 70
     3
  9
$DIMFRAC
 70
     0
  9
$DIMLDRBLK
  1

  9
$DIMLUNIT
 70
     2
  9
$DIMLWD
 70
    -2
  9
$DIMLWE
 70
    -2
  9
$DIMTMOVE
 70
     0
  9
$DIMFXL
 40
1.0
  9
$DIMFXLON
 70
     0
  9
$DIMJOGANG
 40
0.7853981633974483
  9
$DIMTFILL
 70
     0
  9
$DIMTFILLCLR
 70
     0
  9
$DIMARCSYM
 70
     0
  9
$DIMLTYPE
  6

  9
$DIMLTEX1
  6

  9
$DIMLTEX2
  6

  9
$LUNITS
 70
     2
  9
$LUPREC
 70
     4
  9
$SKETCHINC
 40
0.1
  9
$FILLETRAD
 40
3.0
  9
$AUNITS
 70
     0
  9
$AUPREC
 70
     0
  9
$MENU
  1
.
  9
$ELEVATION
 40
0.0
  9
$PELEVATION
 40
0.0
  9
$THICKNESS
 40
0.0
  9
$LIMCHECK
 70
     0
  9
$CHAMFERA
 40
0.0
  9
$CHAMFERB
 40
0.0
  9
$CHAMFERC
 40
0.0
  9
$CHAMFERD
 40
0.0
  9
$SKPOLY
 70
     0
  9
$TDCREATE
 40
2458605.811257466
  9
$TDUCREATE
 40
2458605.977924132
  9
$TDUPDATE
 40
2458605.904324526
  9
$TDUUPDATE
 40
2458606.070991192
  9
$TDINDWG
 40
0.0930680787
  9
$TDUSRTIMER
 40
0.0930676157
  9
$USRTIMER
 70
     1
  9
$ANGBASE
 50
0.0
  9
$ANGDIR
 70
     0
  9
$PDMODE
 70
     0
  9
$PDSIZE
 40
0.0
  9
$PLINEWID
 40
0.0
  9
$SPLFRAME
 70
     0
  9
$SPLINETYPE
 70
     6
  9
$SPLINESEGS
 70
     8
  9
$HANDSEED
  5
5DB
  9
$SURFTAB1
 70
     6
  9
$SURFTAB2
 70
     6
  9
$SURFTYPE
 70
     6
  9
$SURFU
 70
     6
  9
$SURFV
 70
     6
  9
$UCSBASE
  2

  9
$UCSNAME
  2

  9
$UCSORG
 10
0.0
 20
0.0
 30
0.0
  9
$UCSXDIR
 10
1.0
 20
0.0
 30
0.0
  9
$UCSYDIR
 10
0.0
 20
1.0
 30
0.0
  9
$UCSORTHOREF
  2

  9
$UCSORTHOVIEW
 70
     0
  9
$UCSORGTOP
 10
0.0
 20
0.0
 30
0.0
  9
$UCSORGBOTTOM
 10
0.0
 20
0.0
 30
0.0
  9
$UCSORGLEFT
 10
0.0
 20
0.0
 30
0.0
  9
$UCSORGRIGHT
 10
0.0
 20
0.0
 30
0.0
  9
$UCSORGFRONT
 10
0.0
 20
0.0
 30
0.0
  9
$UCSORGBACK
 10
0.0
 20
0.0
 30
0.0
  9
$PUCSBASE
  2

  9
$PUCSNAME
  2

  9
$PUCSORG
 10
0.0
 20
0.0
 30
0.0
  9
$PUCSXDIR
 10
1.0
 20
0.0
 30
0.0
  9
$PUCSYDIR
 10
0.0
 20
1.0
 30
0.0
  9
$PUCSORTHOREF
  2

  9
$PUCSORTHOVIEW
 70
     0
  9
$PUCSORGTOP
 10
0.0
 20
0.0
 30
0.0
  9
$PUCSORGBOTTOM
 10
0.0
 20
0.0
 30
0.0
  9
$PUCSORGLEFT
 10
0.0
 20
0.0
 30
0.0
  9
$PUCSORGRIGHT
 10
0.0
 20
0.0
 30
0.0
  9
$PUCSORGFRONT
 10
0.0
 20
0.0
 30
0.0
  9
$PUCSORGBACK
 10
0.0
 20
0.0
 30
0.0
  9
$USERI1
 70
     0
  9
$USERI2
 70
     0
  9
$USERI3
 70
     0
  9
$USERI4
 70
     0
  9
$USERI5
 70
     0
  9
$USERR1
 40
0.0
  9
$USERR2
 40
0.0
  9
$USERR3
 40
0.0
  9
$USERR4
 40
0.0
  9
$USERR5
 40
0.0
  9
$WORLDVIEW
 70
     1
  9
$SHADEDGE
 70
     3
  9
$SHADEDIF
 70
    70
  9
$TILEMODE
 70
     1
  9
$MAXACTVP
 70
    64
  9
$PINSBASE
 10
0.0
 20
0.0
 30
0.0
  9
$PLIMCHECK
 70
     0
  9
$PEXTMIN
 10
0.0
 20
0.0
 30
0.0
  9
$PEXTMAX
 10
0.0
 20
0.0
 30
0.0
  9
$PLIMMIN
 10
0.0
 20
0.0
  9
$PLIMMAX
 10
12.0
 20
9.0
  9
$UNITMODE
 70
     0
  9
$VISRETAIN
 70
     1
  9
$PLINEGEN
 70
     0
  9
$PSLTSCALE
 70
     1
  9
$TREEDEPTH
 70
  3020
  9
$CMLSTYLE
  2
Standard
  9
$CMLJUST
 70
     0
  9
$CMLSCALE
 40
1.0
  9
$PROXYGRAPHICS
 70
     1
  9
$MEASUREMENT
 70
     0
  9
$CELWEIGHT
370
    -1
  9
$ENDCAPS
280
     0
  9
$JOINSTYLE
280
     0
  9
$LWDISPLAY
290
     0
  9
$INSUNITS
 70
     4
  9
$HYPERLINKBASE
  1

  9
$STYLESHEET
  1

  9
$XEDIT
290
     1
  9
$CEPSNTYPE
380
     0
  9
$PSTYLEMODE
290
     1
  9
$FINGERPRINTGUID
  2
{DDB7E14E-3961-49EC-9B44-DCC7906E2589}
  9
$VERSIONGUID
  2
{2F26C87D-B29B-4790-8AED-35B339D53572}
  9
$EXTNAMES
290
     1
  9
$PSVPSCALE
 40
0.0
  9
$OLESTARTUP
290
     0
  9
$SORTENTS
280
   127
  9
$INDEXCTL
280
     0
  9
$HIDETEXT
280
     1
  9
$XCLIPFRAME
290
     0
  9
$HALOGAP
280
     0
  9
$OBSCOLOR
 70
   257
  9
$OBSLTYPE
280
     0
  9
$INTERSECTIONDISPLAY
280
     0
  9
$INTERSECTIONCOLOR
 70
   257
  9
$DIMASSOC
280
     2
  9
$PROJECTNAME
  1

  9
$CAMERADISPLAY
290
     0
  9
$LENSLENGTH
 40
50.0
  9
$CAMERAHEIGHT
 40
0.0
  9
$STEPSPERSEC
 40
2.0
  9
$STEPSIZE
 40
6.0
  9
$3DDWFPREC
 40
2.0
  9
$PSOLWIDTH
 40
0.25
  9
$PSOLHEIGHT
 40
4.0
  9
$LOFTANG1
 40
1.570796326794896
  9
$LOFTANG2
 40
1.570796326794896
  9
$LOFTMAG1
 40
0.0
  9
$LOFTMAG2
 40
0.0
  9
$LOFTPARAM
 70
     7
  9
$LOFTNORMALS
280
     1
  9
$LATITUDE
 40
37.795
  9
$LONGITUDE
 40
-122.394
  9
$NORTHDIRECTION
 40
0.0
  9
$TIMEZONE
 70
 -8000
  9
$LIGHTGLYPHDISPLAY
280
     1
  9
$TILEMODELIGHTSYNCH
280
     1
  9
$CMATERIAL
347
96
  9
$SOLIDHIST
280
     1
  9
$SHOWHIST
280
     1
  9
$DWFFRAME
280
     2
  9
$DGNFRAME
280
     0
  9
$REALWORLDSCALE
290
     1
  9
$INTERFERECOLOR
 62
     1
  9
$INTERFEREOBJVS
345
A3
  9
$INTERFEREVPVS
346
A0
  9
$CSHADOW
280
     0
  9
$SHADOWPLANELOCATION
 40
0.0
  0
ENDSEC
  0
SECTION
  2
CLASSES
  0
CLASS
  1
ACDBDICTIONARYWDFLT
  2
AcDbDictionaryWithDefault
  3
ObjectDBX Classes
 90
        0
 91
        1
280
     0
281
     0
  0
CLASS
  1
DICTIONARYVAR
  2
AcDbDictionaryVar
  3
ObjectDBX Classes
 90
        0
 91
        3
280
     0
281
     0
  0
CLASS
  1
TABLESTYLE
  2
AcDbTableStyle
  3
ObjectDBX Classes
 90
     4095
 91
        1
280
     0
281
     0
  0
CLASS
  1
MATERIAL
  2
AcDbMaterial
  3
ObjectDBX Classes
 90
     1024
 91
        3
280
     0
281
     0
  0
CLASS
  1
VISUALSTYLE
  2
AcDbVisualStyle
  3
ObjectDBX Classes
 90
     4095
 91
       16
280
     0
281
     0
  0
CLASS
  1
SORTENTSTABLE
  2
AcDbSortentsTable
  3
ObjectDBX Classes
 90
        0
 91
        1
280
     0
281
     0
  0
CLASS
  1
DIMASSOC
  2
AcDbDimAssoc
  3
"AcDbDimAssoc|Product Desc:     AcDim ARX App For Dimension|Company:          Autodesk, Inc.|WEB Address:      www.autodesk.com"
 90
        0
 91
       30
280
     0
281
     0
  0
ENDSEC
  0
SECTION
  2
TABLES
  0
TABLE
  2
VPORT
  5
8
330
0
100
AcDbSymbolTable
 70
     1
  0
VPORT
  5
94
330
8
100
AcDbSymbolTableRecord
100
AcDbViewportTableRecord
  2
*Active
 70
     0
 10
0.0
 20
0.0
 11
1.0
 21
1.0
 12
139.0476632881089
 22
34.99561199052413
 13
0.0
 23
0.0
 14
0.5
 24
0.5
 15
0.5
 25
0.5
 16
0.0
 26
0.0
 36
1.0
 17
0.0
 27
0.0
 37
0.0
 40
123.3395451689559
 41
2.341055341055341
 42
50.0
 43
0.0
 44
0.0
 50
0.0
 51
0.0
 71
     0
 72
  1000
 73
     1
 74
     3
 75
     0
 76
     0
 77
     0
 78
     0
281
     0
 65
     1
110
0.0
120
0.0
130
0.0
111
1.0
121
0.0
131
0.0
112
0.0
122
1.0
132
0.0
 79
     0
146
0.0
348
9F
 60
     2
 61
     5
292
     1
282
     1
141
0.0
142
0.0
 63
   250
421
  3355443
  0
ENDTAB
  0
TABLE
  2
LTYPE
  5
5
330
0
100
AcDbSymbolTable
 70
     2
  0
LTYPE
  5
14
330
5
100
AcDbSymbolTableRecord
100
AcDbLinetypeTableRecord
  2
ByBlock
 70
     0
  3

 72
    65
 73
     0
 40
0.0
  0
LTYPE
  5
15
330
5
100
AcDbSymbolTableRecord
100
AcDbLinetypeTableRecord
  2
ByLayer
 70
     0
  3

 72
    65
 73
     0
 40
0.0
  0
LTYPE
  5
16
330
5
100
AcDbSymbolTableRecord
100
AcDbLinetypeTableRecord
  2
Continuous
 70
     0
  3
Solid line
 72
    65
 73
     0
 40
0.0
  0
ENDTAB
  0
TABLE
  2
LAYER
  5
2
102
{ACAD_XDICTIONARY
360
484
102
}
330
0
100
AcDbSymbolTable
 70
     4
  0
LAYER
  5
10
330
2
100
AcDbSymbolTableRecord
100
AcDbLayerTableRecord
  2
0
 70
     0
 62
     7
  6
Continuous
370
    -3
390
F
347
98
  0
LAYER
  5
D8
330
2
100
AcDbSymbolTableRecord
100
AcDbLayerTableRecord
  2
Defpoints
 70
     0
 62
     7
  6
Continuous
290
     0
370
    -3
390
F
347
98
  0
LAYER
  5
482
330
2
100
AcDbSymbolTableRecord
100
AcDbLayerTableRecord
  2
PCB
 70
     0
 62
     3
  6
Continuous
370
    -3
390
F
347
98
1001
AcAecLayerStandard
1000

1000

  0
LAYER
  5
487
330
2
100
AcDbSymbolTableRecord
100
AcDbLayerTableRecord
  2
Keep-Out
 70
     0
 62
     1
  6
Continuous
370
    -3
390
F
347
98
1001
AcAecLayerStandard
1000

1000

  0
ENDTAB
  0
TABLE
  2
STYLE
  5
3
330
0
100
AcDbSymbolTable
 70
     1
  0
STYLE
  5
11
330
3
100
AcDbSymbolTableRecord
100
AcDbTextStyleTableRecord
  2
Standard
 70
     0
 40
0.0
 41
1.0
 50
0.0
 71
     0
 42
0.2
  3
txt
  4

  0
ENDTAB
  0
TABLE
  2
VIEW
  5
6
330
0
100
AcDbSymbolTable
 70
     0
  0
ENDTAB
  0
TABLE
  2
UCS
  5
7
330
0
100
AcDbSymbolTable
 70
     0
  0
ENDTAB
  0
TABLE
  2
APPID
  5
9
330
0
100
AcDbSymbolTable
 70
     3
  0
APPID
  5
12
330
9
100
AcDbSymbolTableRecord
100
AcDbRegAppTableRecord
  2
ACAD
 70
     0
  0
APPID
  5
BA
330
9
100
AcDbSymbolTableRecord
100
AcDbRegAppTableRecord
  2
ACAD_EXEMPT_FROM_CAD_STANDARDS
 70
     0
  0
APPID
  5
483
330
9
100
AcDbSymbolTableRecord
100
AcDbRegAppTableRecord
  2
AcAecLayerStandard
 70
     0
  0
ENDTAB
  0
TABLE
  2
DIMSTYLE
  5
A
330
0
100
AcDbSymbolTable
 70
     2
100
AcDbDimStyleTable
 71
     1
340
27
  0
DIMSTYLE
105
27
330
A
100
AcDbSymbolTableRecord
100
AcDbDimStyleTableRecord
  2
Standard
 70
     0
179
     1
271
     2
272
     2
340
11
  0
ENDTAB
  0
TABLE
  2
BLOCK_RECORD
  5
1
330
0
100
AcDbSymbolTable
 70
    34
  0
BLOCK_RECORD
  5
1F
102
{ACAD_XDICTIONARY
360
C2
102
}
330
1
100
AcDbSymbolTableRecord
100
AcDbBlockTableRecord
  2
*Model_Space
340
22
 70
     0
280
     1
281
     0
  0
BLOCK_RECORD
  5
58
330
1
100
AcDbSymbolTableRecord
100
AcDbBlockTableRecord
  2
*Paper_Space
340
59
 70
     0
280
     1
281
     0
  0
BLOCK_RECORD
  5
5D
330
1
100
AcDbSymbolTableRecord
100
AcDbBlockTableRecord
  2
*Paper_Space0
340
5E
 70
     0
280
     1
281
     0
  0
BLOCK_RECORD
  5
D9
330
1
100
AcDbSymbolTableRecord
100
AcDbBlockTableRecord
  2
*D2
340
0
 70
     0
280
     1
281
     0
  0
BLOCK_RECORD
  5
F3
330
1
100
AcDbSymbolTableRecord
100
AcDbBlockTableRecord
  2
*D3
340
0
 70
     0
280
     1
281
     0
  0
BLOCK_RECORD
  5
10D
330
1
100
AcDbSymbolTableRecord
100
AcDbBlockTableRecord
  2
*D4
340
0
 70
     0
280
     1
281
     0
  0
BLOCK_RECORD
  5
16E
330
1
100
AcDbSymbolTableRecord
100
AcDbBlockTableRecord
  2
*D5
340
0
 70
     0
280
     1
281
     0
  0
BLOCK_RECORD
  5
194
330
1
100
AcDbSymbolTableRecord
100
AcDbBlockTableRecord
  2
*D6
340
0
 70
     0
280
     1
281
     0
  0
BLOCK_RECORD
  5
1B9
330
1
100
AcDbSymbolTableRecord
100
AcDbBlockTableRecord
  2
*D7
340
0
 70
     0
280
     1
281
     0
  0
BLOCK_RECORD
  5
1D3
330
1
100
AcDbSymbolTableRecord
100
AcDbBlockTableRecord
  2
*D8
340
0
 70
     0
280
     1
281
     0
  0
BLOCK_RECORD
  5
203
330
1
100
AcDbSymbolTableRecord
100
AcDbBlockTableRecord
  2
*D9
340
0
 70
     0
280
     1
281
     0
  0
BLOCK_RECORD
  5
21D
330
1
100
AcDbSymbolTableRecord
100
AcDbBlockTableRecord
  2
*D10
340
0
 70
     0
280
     1
281
     0
  0
BLOCK_RECORD
  5
248
330
1
100
AcDbSymbolTableRecord
100
AcDbBlockTableRecord
  2
*D11
340
0
 70
     0
280
     1
281
     0
  0
BLOCK_RECORD
  5
268
330
1
100
AcDbSymbolTableRecord
100
AcDbBlockTableRecord
  2
*D12
340
0
 70
     0
280
     1
281
     0
  0
BLOCK_RECORD
  5
283
330
1
100
AcDbSymbolTableRecord
100
AcDbBlockTableRecord
  2
*D13
340
0
 70
     0
280
     1
281
     0
  0
BLOCK_RECORD
  5
293
330
1
100
AcDbSymbolTableRecord
100
AcDbBlockTableRecord
  2
*D14
340
0
 70
     0
280
     1
281
     0
  0
BLOCK_RECORD
  5
2B4
330
1
100
AcDbSymbolTableRecord
100
AcDbBlockTableRecord
  2
*D15
340
0
 70
     0
280
     1
281
     0
  0
BLOCK_RECORD
  5
2D8
330
1
100
AcDbSymbolTableRecord
100
AcDbBlockTableRecord
  2
*D16
340
0
 70
     0
280
     1
281
     0
  0
BLOCK_RECORD
  5
2F2
330
1
100
AcDbSymbolTableRecord
100
AcDbBlockTableRecord
  2
*D17
340
0
 70
     0
280
     1
281
     0
  0
BLOCK_RECORD
  5
31A
330
1
100
AcDbSymbolTableRecord
100
AcDbBlockTableRecord
  2
*D18
340
0
 70
     0
280
     1
281
     0
  0
BLOCK_RECORD
  5
34D
330
1
100
AcDbSymbolTableRecord
100
AcDbBlockTableRecord
  2
*D19
340
0
 70
     0
280
     1
281
     0
  0
BLOCK_RECORD
  5
368
330
1
100
AcDbSymbolTableRecord
100
AcDbBlockTableRecord
  2
*D20
340
0
 70
     0
280
     1
281
     0
  0
BLOCK_RECORD
  5
383
330
1
100
AcDbSymbolTableRecord
100
AcDbBlockTableRecord
  2
*D21
340
0
 70
     0
280
     1
281
     0
  0
BLOCK_RECORD
  5
3AF
330
1
100
AcDbSymbolTableRecord
100
AcDbBlockTableRecord
  2
*D22
340
0
 70
     0
280
     1
281
     0
  0
BLOCK_RECORD
  5
3CC
330
1
100
AcDbSymbolTableRecord
100
AcDbBlockTableRecord
  2
*D23
340
0
 70
     0
280
     1
281
     0
  0
BLOCK_RECORD
  5
3E7
330
1
100
AcDbSymbolTableRecord
100
AcDbBlockTableRecord
  2
*D24
340
0
 70
     0
280
     1
281
     0
  0
BLOCK_RECORD
  5
415
330
1
100
AcDbSymbolTableRecord
100
AcDbBlockTableRecord
  2
*D25
340
0
 70
     0
280
     1
281
     0
  0
BLOCK_RECORD
  5
433
330
1
100
AcDbSymbolTableRecord
100
AcDbBlockTableRecord
  2
*D26
340
0
 70
     0
280
     1
281
     0
  0
BLOCK_RECORD
  5
44E
330
1
100
AcDbSymbolTableRecord
100
AcDbBlockTableRecord
  2
*D27
340
0
 70
     0
280
     1
281
     0
  0
BLOCK_RECORD
  5
469
330
1
100
AcDbSymbolTableRecord
100
AcDbBlockTableRecord
  2
*D28
340
0
 70
     0
280
     1
281
     0
  0
BLOCK_RECORD
  5
49C
330
1
100
AcDbSymbolTableRecord
100
AcDbBlockTableRecord
  2
*D29
340
0
 70
     0
280
     1
281
     0
  0
BLOCK_RECORD
  5
4B7
330
1
100
AcDbSymbolTableRecord
100
AcDbBlockTableRecord
  2
*D30
340
0
 70
     0
280
     1
281
     0
  0
BLOCK_RECORD
  5
4D2
330
1
100
AcDbSymbolTableRecord
100
AcDbBlockTableRecord
  2
*D31
340
0
 70
     0
280
     1
281
     0
  0
BLOCK_RECORD
  5
502
330
1
100
AcDbSymbolTableRecord
100
AcDbBlockTableRecord
  2
*D32
340
0
 70
     0
280
     1
281
     0
  0
BLOCK_RECORD
  5
51C
330
1
100
AcDbSymbolTableRecord
100
AcDbBlockTableRecord
  2
*D33
340
0
 70
     0
280
     1
281
     0
  0
ENDTAB
  0
ENDSEC
  0
SECTION
  2
BLOCKS
  0
BLOCK
  5
20
330
1F
100
AcDbEntity
  8
0
100
AcDbBlockBegin
  2
*Model_Space
 70
     0
 10
0.0
 20
0.0
 30
0.0
  3
*Model_Space
  1

  0
ENDBLK
  5
21
330
1F
100
AcDbEntity
  8
0
100
AcDbBlockEnd
  0
BLOCK
  5
5A
330
58
100
AcDbEntity
 67
     1
  8
0
100
AcDbBlockBegin
  2
*Paper_Space
 70
     0
 10
0.0
 20
0.0
 30
0.0
  3
*Paper_Space
  1

  0
ENDBLK
  5
5B
330
58
100
AcDbEntity
 67
     1
  8
0
100
AcDbBlockEnd
  0
BLOCK
  5
5F
330
5D
100
AcDbEntity
 67
     1
  8
0
100
AcDbBlockBegin
  2
*Paper_Space0
 70
     0
 10
0.0
 20
0.0
 30
0.0
  3
*Paper_Space0
  1

  0
ENDBLK
  5
60
330
5D
100
AcDbEntity
 67
     1
  8
0
100
AcDbBlockEnd
  0
BLOCK
  5
E4
330
D9
100
AcDbEntity
  8
0
100
AcDbBlockBegin
  2
*D2
 70
     1
 10
0.0
 20
0.0
 30
0.0
  3
*D2
  1

  0
LINE
  5
E7
330
D9
100
AcDbEntity
  8
0
 62
     0
370
    -2
100
AcDbLine
 10
45.95278422342596
 20
19.86402811208343
 30
0.0
 11
45.95278422342596
 21
17.85273571609298
 31
0.0
  0
LINE
  5
E8
330
D9
100
AcDbEntity
  8
0
 62
     0
370
    -2
100
AcDbLine
 10
51.15278422342597
 20
19.86402811208343
 30
0.0
 11
51.15278422342597
 21
17.85273571609298
 31
0.0
  0
LINE
  5
E9
330
D9
100
AcDbEntity
  8
0
 62
     0
370
    -2
100
AcDbLine
 10
46.13278422342596
 20
18.03273571609298
 30
0.0
 11
48.20778422342597
 21
18.03273571609298
 31
0.0
  0
LINE
  5
EA
330
D9
100
AcDbEntity
  8
0
 62
     0
370
    -2
100
AcDbLine
 10
50.97278422342597
 20
18.03273571609298
 30
0.0
 11
48.89778422342597
 21
18.03273571609298
 31
0.0
  0
SOLID
  5
EB
330
D9
100
AcDbEntity
  8
0
 62
     0
100
AcDbTrace
 10
46.13278422342596
 20
18.06273571609299
 30
0.0
 11
46.13278422342596
 21
18.00273571609298
 31
0.0
 12
45.95278422342596
 22
18.03273571609298
 32
0.0
 13
45.95278422342596
 23
18.03273571609298
 33
0.0
  0
SOLID
  5
EC
330
D9
100
AcDbEntity
  8
0
 62
     0
100
AcDbTrace
 10
50.97278422342597
 20
18.06273571609299
 30
0.0
 11
50.97278422342597
 21
18.00273571609298
 31
0.0
 12
51.15278422342597
 22
18.03273571609298
 32
0.0
 13
51.15278422342597
 23
18.03273571609298
 33
0.0
  0
MTEXT
  5
ED
330
D9
100
AcDbEntity
  8
0
 62
     0
100
AcDbMText
 10
48.55278422342596
 20
18.03273571609298
 30
0.0
 40
0.18
 41
0.0
 46
0.0
 71
     5
 72
     1
  1
\A1;5.20
 73
     1
 44
1.0
  0
POINT
  5
EE
330
D9
100
AcDbEntity
  8
Defpoints
 62
     0
100
AcDbPoint
 10
45.95278422342596
 20
19.92652811208343
 30
0.0
  0
POINT
  5
EF
330
D9
100
AcDbEntity
  8
Defpoints
 62
     0
100
AcDbPoint
 10
51.15278422342597
 20
19.92652811208343
 30
0.0
  0
POINT
  5
F0
330
D9
100
AcDbEntity
  8
Defpoints
 62
     0
100
AcDbPoint
 10
51.15278422342597
 20
18.03273571609298
 30
0.0
  0
ENDBLK
  5
E5
330
D9
100
AcDbEntity
  8
0
100
AcDbBlockEnd
  0
BLOCK
  5
FE
330
F3
100
AcDbEntity
  8
0
100
AcDbBlockBegin
  2
*D3
 70
     1
 10
0.0
 20
0.0
 30
0.0
  3
*D3
  1

  0
LINE
  5
101
330
F3
100
AcDbEntity
  8
0
 62
     0
370
    -2
100
AcDbLine
 10
45.95278422342596
 20
19.30152811208343
 30
0.0
 11
45.95278422342596
 21
15.7365869890103
 31
0.0
  0
LINE
  5
102
330
F3
100
AcDbEntity
  8
0
 62
     0
370
    -2
100
AcDbLine
 10
51.15278422342597
 20
19.30152811208343
 30
0.0
 11
51.15278422342597
 21
15.7365869890103
 31
0.0
  0
LINE
  5
103
330
F3
100
AcDbEntity
  8
0
 62
     0
370
    -2
100
AcDbLine
 10
44.15278422342597
 20
17.5365869890103
 30
0.0
 11
42.35278422342596
 21
17.5365869890103
 31
0.0
  0
LINE
  5
104
330
F3
100
AcDbEntity
  8
0
 62
     0
370
    -2
100
AcDbLine
 10
52.95278422342597
 20
17.5365869890103
 30
0.0
 11
54.75278422342596
 21
17.5365869890103
 31
0.0
  0
SOLID
  5
105
330
F3
100
AcDbEntity
  8
0
 62
     0
100
AcDbTrace
 10
44.15278422342597
 20
17.8365869890103
 30
0.0
 11
44.15278422342597
 21
17.2365869890103
 31
0.0
 12
45.95278422342596
 22
17.5365869890103
 32
0.0
 13
45.95278422342596
 23
17.5365869890103
 33
0.0
  0
SOLID
  5
106
330
F3
100
AcDbEntity
  8
0
 62
     0
100
AcDbTrace
 10
52.95278422342597
 20
17.8365869890103
 30
0.0
 11
52.95278422342597
 21
17.2365869890103
 31
0.0
 12
51.15278422342597
 22
17.5365869890103
 32
0.0
 13
51.15278422342597
 23
17.5365869890103
 33
0.0
  0
MTEXT
  5
107
330
F3
100
AcDbEntity
  8
0
 62
     0
100
AcDbMText
 10
58.20278422342596
 20
17.5365869890103
 30
0.0
 40
1.799999999999999
 41
0.0
 46
0.0
 71
     5
 72
     1
  1
\A1;5.20
 73
     1
 44
1.0
  0
POINT
  5
108
330
F3
100
AcDbEntity
  8
Defpoints
 62
     0
100
AcDbPoint
 10
45.95278422342596
 20
19.92652811208343
 30
0.0
  0
POINT
  5
109
330
F3
100
AcDbEntity
  8
Defpoints
 62
     0
100
AcDbPoint
 10
51.15278422342597
 20
19.92652811208343
 30
0.0
  0
POINT
  5
10A
330
F3
100
AcDbEntity
  8
Defpoints
 62
     0
100
AcDbPoint
 10
51.15278422342597
 20
17.5365869890103
 30
0.0
  0
ENDBLK
  5
FF
330
F3
100
AcDbEntity
  8
0
100
AcDbBlockEnd
  0
BLOCK
  5
116
330
10D
100
AcDbEntity
  8
0
100
AcDbBlockBegin
  2
*D4
 70
     1
 10
0.0
 20
0.0
 30
0.0
  3
*D4
  1

  0
LINE
  5
13C
330
10D
100
AcDbEntity
  8
0
 62
     0
370
    -2
100
AcDbLine
 10
61.42545522345771
 20
43.5034263719022
 30
0.0
 11
59.6254552234577
 21
43.5034263719022
 31
0.0
  0
LINE
  5
13D
330
10D
100
AcDbEntity
  8
0
 62
     0
370
    -2
100
AcDbLine
 10
59.6254552234577
 20
43.5034263719022
 30
0.0
 11
58.07853304120491
 21
41.36714482815082
 31
0.0
  0
MTEXT
  5
13E
330
10D
100
AcDbEntity
  8
0
 62
     0
100
AcDbMText
 10
65.77545522345769
 20
43.5034263719022
 30
0.0
 40
1.799999999999999
 41
0.0
 46
0.0
 71
     5
 72
     1
  1
\A1;\U+22057.40
 73
     1
 44
1.0
  0
SOLID
  5
13F
330
10D
100
AcDbEntity
  8
0
 62
     0
100
AcDbTrace
 10
57.8355482264691
 20
41.54309476366604
 30
0.0
 11
58.32151785594071
 21
41.1911948926356
 31
0.0
 12
57.02283342811361
 22
39.90923593973601
 32
0.0
 13
57.02283342811361
 23
39.90923593973601
 33
0.0
  0
LINE
  5
140
330
10D
100
AcDbEntity
  8
0
 62
     0
370
    -2
100
AcDbLine
 10
53.95278422342596
 20
36.91242322466114
 30
0.0
 11
55.75278422342595
 21
36.91242322466113
 31
0.0
  0
LINE
  5
141
330
10D
100
AcDbEntity
  8
0
 62
     0
370
    -2
100
AcDbLine
 10
54.85278422342596
 20
36.01242322466115
 30
0.0
 11
54.85278422342596
 21
37.81242322466113
 31
0.0
  0
POINT
  5
142
330
10D
100
AcDbEntity
  8
Defpoints
 62
     0
100
AcDbPoint
 10
57.02283342811361
 20
39.90923593973601
 30
0.0
  0
POINT
  5
143
330
10D
100
AcDbEntity
  8
Defpoints
 62
     0
100
AcDbPoint
 10
52.68273501873832
 20
33.91561050958627
 30
0.0
  0
ENDBLK
  5
117
330
10D
100
AcDbEntity
  8
0
100
AcDbBlockEnd
  0
BLOCK
  5
179
330
16E
100
AcDbEntity
  8
0
100
AcDbBlockBegin
  2
*D5
 70
     1
 10
0.0
 20
0.0
 30
0.0
  3
*D5
  1

  0
LINE
  5
17C
330
16E
100
AcDbEntity
  8
0
 62
     0
370
    -2
100
AcDbLine
 10
149.2427842234259
 20
61.66952672752753
 30
0.0
 11
149.2427842234259
 21
65.93021007707867
 31
0.0
  0
LINE
  5
17D
330
16E
100
AcDbEntity
  8
0
 62
     0
370
    -2
100
AcDbLine
 10
168.8427842234259
 20
61.86238195086686
 30
0.0
 11
168.8427842234259
 21
65.93021007707867
 31
0.0
  0
LINE
  5
17E
330
16E
100
AcDbEntity
  8
0
 62
     0
370
    -2
100
AcDbLine
 10
151.0427842234259
 20
64.13021007707867
 30
0.0
 11
154.9927842234259
 21
64.13021007707867
 31
0.0
  0
LINE
  5
17F
330
16E
100
AcDbEntity
  8
0
 62
     0
370
    -2
100
AcDbLine
 10
167.0427842234259
 20
64.13021007707867
 30
0.0
 11
163.0927842234259
 21
64.13021007707867
 31
0.0
  0
SOLID
  5
180
330
16E
100
AcDbEntity
  8
0
 62
     0
100
AcDbTrace
 10
151.0427842234259
 20
64.43021007707867
 30
0.0
 11
151.0427842234259
 21
63.83021007707867
 31
0.0
 12
149.2427842234259
 22
64.13021007707867
 32
0.0
 13
149.2427842234259
 23
64.13021007707867
 33
0.0
  0
SOLID
  5
181
330
16E
100
AcDbEntity
  8
0
 62
     0
100
AcDbTrace
 10
167.0427842234259
 20
64.43021007707867
 30
0.0
 11
167.0427842234259
 21
63.83021007707867
 31
0.0
 12
168.8427842234259
 22
64.13021007707867
 32
0.0
 13
168.8427842234259
 23
64.13021007707867
 33
0.0
  0
MTEXT
  5
182
330
16E
100
AcDbEntity
  8
0
 62
     0
100
AcDbMText
 10
159.0427842234259
 20
64.13021007707867
 30
0.0
 40
1.799999999999999
 41
0.0
 46
0.0
 71
     5
 72
     1
  1
\A1;19.60
 73
     1
 44
1.0
  0
POINT
  5
183
330
16E
100
AcDbEntity
  8
Defpoints
 62
     0
100
AcDbPoint
 10
149.2427842234259
 20
61.04452672752753
 30
0.0
  0
POINT
  5
184
330
16E
100
AcDbEntity
  8
Defpoints
 62
     0
100
AcDbPoint
 10
168.8427842234259
 20
61.23738195086686
 30
0.0
  0
POINT
  5
185
330
16E
100
AcDbEntity
  8
Defpoints
 62
     0
100
AcDbPoint
 10
168.8427842234259
 20
64.13021007707867
 30
0.0
  0
ENDBLK
  5
17A
330
16E
100
AcDbEntity
  8
0
100
AcDbBlockEnd
  0
BLOCK
  5
19F
330
194
100
AcDbEntity
  8
0
100
AcDbBlockBegin
  2
*D6
 70
     1
 10
0.0
 20
0.0
 30
0.0
  3
*D6
  1

  0
LINE
  5
1F8
330
194
100
AcDbEntity
  8
0
 62
     0
370
    -2
100
AcDbLine
 10
12.25278422342597
 20
77.03742322466112
 30
0.0
 11
12.25278422342597
 21
86.29546542793018
 31
0.0
  0
LINE
  5
1F9
330
194
100
AcDbEntity
  8
0
 62
     0
370
    -2
100
AcDbLine
 10
257.7927842234259
 20
77.03742322466112
 30
0.0
 11
257.7927842234259
 21
86.29546542793018
 31
0.0
  0
LINE
  5
1FA
330
194
100
AcDbEntity
  8
0
 62
     0
370
    -2
100
AcDbLine
 10
14.05278422342597
 20
84.49546542793019
 30
0.0
 11
129.6227842234259
 21
84.49546542793019
 31
0.0
  0
LINE
  5
1FB
330
194
100
AcDbEntity
  8
0
 62
     0
370
    -2
100
AcDbLine
 10
255.9927842234259
 20
84.49546542793019
 30
0.0
 11
140.4227842234259
 21
84.49546542793019
 31
0.0
  0
SOLID
  5
1FC
330
194
100
AcDbEntity
  8
0
 62
     0
100
AcDbTrace
 10
14.05278422342597
 20
84.79546542793018
 30
0.0
 11
14.05278422342597
 21
84.19546542793019
 31
0.0
 12
12.25278422342597
 22
84.49546542793019
 32
0.0
 13
12.25278422342597
 23
84.49546542793019
 33
0.0
  0
SOLID
  5
1FD
330
194
100
AcDbEntity
  8
0
 62
     0
100
AcDbTrace
 10
255.9927842234259
 20
84.79546542793018
 30
0.0
 11
255.9927842234259
 21
84.19546542793019
 31
0.0
 12
257.7927842234259
 22
84.49546542793019
 32
0.0
 13
257.7927842234259
 23
84.49546542793019
 33
0.0
  0
MTEXT
  5
1FE
330
194
100
AcDbEntity
  8
0
 62
     0
100
AcDbMText
 10
135.0227842234259
 20
84.49546542793019
 30
0.0
 40
1.799999999999999
 41
0.0
 46
0.0
 71
     5
 72
     1
  1
\A1;245.54
 73
     1
 44
1.0
  0
POINT
  5
1FF
330
194
100
AcDbEntity
  8
Defpoints
 62
     0
100
AcDbPoint
 10
12.25278422342597
 20
76.41242322466112
 30
0.0
  0
POINT
  5
200
330
194
100
AcDbEntity
  8
Defpoints
 62
     0
100
AcDbPoint
 10
257.7927842234259
 20
76.41242322466112
 30
0.0
  0
POINT
  5
201
330
194
100
AcDbEntity
  8
Defpoints
 62
     0
100
AcDbPoint
 10
257.7927842234259
 20
84.49546542793019
 30
0.0
  0
ENDBLK
  5
1A0
330
194
100
AcDbEntity
  8
0
100
AcDbBlockEnd
  0
BLOCK
  5
1C4
330
1B9
100
AcDbEntity
  8
0
100
AcDbBlockBegin
  2
*D7
 70
     1
 10
0.0
 20
0.0
 30
0.0
  3
*D7
  1

  0
LINE
  5
1C7
330
1B9
100
AcDbEntity
  8
0
 62
     0
370
    -2
100
AcDbLine
 10
41.62778422342597
 20
76.61242322466115
 30
0.0
 11
-15.42390749464221
 21
76.61242322466117
 31
0.0
  0
LINE
  5
1C8
330
1B9
100
AcDbEntity
  8
0
 62
     0
370
    -2
100
AcDbLine
 10
41.62778422342597
 20
6.012423224661152
 30
0.0
 11
-15.42390749464223
 21
6.012423224661168
 31
0.0
  0
LINE
  5
1C9
330
1B9
100
AcDbEntity
  8
0
 62
     0
370
    -2
100
AcDbLine
 10
-13.62390749464222
 20
74.81242322466117
 30
0.0
 11
-13.62390749464222
 21
43.11242322466116
 31
0.0
  0
LINE
  5
1CA
330
1B9
100
AcDbEntity
  8
0
 62
     0
370
    -2
100
AcDbLine
 10
-13.62390749464223
 20
7.812423224661167
 30
0.0
 11
-13.62390749464222
 21
39.51242322466117
 31
0.0
  0
SOLID
  5
1CB
330
1B9
100
AcDbEntity
  8
0
 62
     0
100
AcDbTrace
 10
-13.92390749464222
 20
74.81242322466117
 30
0.0
 11
-13.32390749464221
 21
74.81242322466117
 31
0.0
 12
-13.62390749464221
 22
76.61242322466117
 32
0.0
 13
-13.62390749464221
 23
76.61242322466117
 33
0.0
  0
SOLID
  5
1CC
330
1B9
100
AcDbEntity
  8
0
 62
     0
100
AcDbTrace
 10
-13.92390749464223
 20
7.812423224661167
 30
0.0
 11
-13.32390749464223
 21
7.812423224661167
 31
0.0
 12
-13.62390749464223
 22
6.012423224661167
 32
0.0
 13
-13.62390749464223
 23
6.012423224661167
 33
0.0
  0
MTEXT
  5
1CD
330
1B9
100
AcDbEntity
  8
0
 62
     0
100
AcDbMText
 10
-13.62390749464223
 20
41.31242322466117
 30
0.0
 40
1.799999999999999
 41
0.0
 46
0.0
 71
     5
 72
     1
  1
\A1;70.60
 73
     1
 44
1.0
  0
POINT
  5
1CE
330
1B9
100
AcDbEntity
  8
Defpoints
 62
     0
100
AcDbPoint
 10
42.25278422342597
 20
76.61242322466115
 30
0.0
  0
POINT
  5
1CF
330
1B9
100
AcDbEntity
  8
Defpoints
 62
     0
100
AcDbPoint
 10
42.25278422342597
 20
6.012423224661151
 30
0.0
  0
POINT
  5
1D0
330
1B9
100
AcDbEntity
  8
Defpoints
 62
     0
100
AcDbPoint
 10
-13.62390749464223
 20
6.012423224661167
 30
0.0
  0
ENDBLK
  5
1C5
330
1B9
100
AcDbEntity
  8
0
100
AcDbBlockEnd
  0
BLOCK
  5
1DE
330
1D3
100
AcDbEntity
  8
0
100
AcDbBlockBegin
  2
*D8
 70
     1
 10
0.0
 20
0.0
 30
0.0
  3
*D8
  1

  0
LINE
  5
1E1
330
1D3
100
AcDbEntity
  8
0
 62
     0
370
    -2
100
AcDbLine
 10
227.1177842234259
 20
76.61242322466114
 30
0.0
 11
268.4345508004804
 21
76.61242322466114
 31
0.0
  0
LINE
  5
1E2
330
1D3
100
AcDbEntity
  8
0
 62
     0
370
    -2
100
AcDbLine
 10
227.1177842234259
 20
6.221549217850711
 30
0.0
 11
268.4345508004804
 21
6.221549217850699
 31
0.0
  0
LINE
  5
1E3
330
1D3
100
AcDbEntity
  8
0
 62
     0
370
    -2
100
AcDbLine
 10
266.6345508004804
 20
74.81242322466115
 30
0.0
 11
266.6345508004804
 21
43.21698622125592
 31
0.0
  0
LINE
  5
1E4
330
1D3
100
AcDbEntity
  8
0
 62
     0
370
    -2
100
AcDbLine
 10
266.6345508004804
 20
8.021549217850699
 30
0.0
 11
266.6345508004804
 21
39.61698622125593
 31
0.0
  0
SOLID
  5
1E5
330
1D3
100
AcDbEntity
  8
0
 62
     0
100
AcDbTrace
 10
266.3345508004804
 20
74.81242322466115
 30
0.0
 11
266.9345508004804
 21
74.81242322466115
 31
0.0
 12
266.6345508004804
 22
76.61242322466114
 32
0.0
 13
266.6345508004804
 23
76.61242322466114
 33
0.0
  0
SOLID
  5
1E6
330
1D3
100
AcDbEntity
  8
0
 62
     0
100
AcDbTrace
 10
266.3345508004804
 20
8.021549217850699
 30
0.0
 11
266.9345508004804
 21
8.021549217850699
 31
0.0
 12
266.6345508004804
 22
6.221549217850699
 32
0.0
 13
266.6345508004804
 23
6.221549217850699
 33
0.0
  0
MTEXT
  5
1E7
330
1D3
100
AcDbEntity
  8
0
 62
     0
100
AcDbMText
 10
266.6345508004804
 20
41.41698622125597
 30
0.0
 40
1.799999999999999
 41
0.0
 46
0.0
 71
     5
 72
     1
  1
\A1;70.39
 73
     1
 44
1.0
  0
POINT
  5
1E8
330
1D3
100
AcDbEntity
  8
Defpoints
 62
     0
100
AcDbPoint
 10
226.4927842234259
 20
76.61242322466114
 30
0.0
  0
POINT
  5
1E9
330
1D3
100
AcDbEntity
  8
Defpoints
 62
     0
100
AcDbPoint
 10
226.4927842234259
 20
6.221549217850711
 30
0.0
  0
POINT
  5
1EA
330
1D3
100
AcDbEntity
  8
Defpoints
 62
     0
100
AcDbPoint
 10
266.6345508004804
 20
6.221549217850699
 30
0.0
  0
ENDBLK
  5
1DF
330
1D3
100
AcDbEntity
  8
0
100
AcDbBlockEnd
  0
BLOCK
  5
20E
330
203
100
AcDbEntity
  8
0
100
AcDbBlockBegin
  2
*D9
 70
     1
 10
0.0
 20
0.0
 30
0.0
  3
*D9
  1

  0
LINE
  5
33E
330
203
100
AcDbEntity
  8
0
 62
     0
370
    -2
100
AcDbLine
 10
32.72468588342707
 20
76.41242322466112
 30
0.0
 11
-8.467381003675459
 21
76.41242322466114
 31
0.0
  0
LINE
  5
33F
330
203
100
AcDbEntity
  8
0
 62
     0
370
    -2
100
AcDbLine
 10
11.62778422342597
 20
5.978371011267282
 30
0.0
 11
-8.46738100367548
 21
5.978371011267287
 31
0.0
  0
LINE
  5
340
330
203
100
AcDbEntity
  8
0
 62
     0
370
    -2
100
AcDbLine
 10
-6.667381003675464
 20
74.61242322466114
 30
0.0
 11
-6.667381003675471
 21
42.99539711796421
 31
0.0
  0
LINE
  5
341
330
203
100
AcDbEntity
  8
0
 62
     0
370
    -2
100
AcDbLine
 10
-6.667381003675479
 20
7.778371011267287
 30
0.0
 11
-6.667381003675472
 21
39.39539711796422
 31
0.0
  0
SOLID
  5
342
330
203
100
AcDbEntity
  8
0
 62
     0
100
AcDbTrace
 10
-6.967381003675463
 20
74.61242322466114
 30
0.0
 11
-6.367381003675464
 21
74.61242322466114
 31
0.0
 12
-6.667381003675464
 22
76.41242322466114
 32
0.0
 13
-6.667381003675464
 23
76.41242322466114
 33
0.0
  0
SOLID
  5
343
330
203
100
AcDbEntity
  8
0
 62
     0
100
AcDbTrace
 10
-6.967381003675479
 20
7.778371011267287
 30
0.0
 11
-6.367381003675479
 21
7.778371011267287
 31
0.0
 12
-6.66738100367548
 22
5.978371011267287
 32
0.0
 13
-6.66738100367548
 23
5.978371011267287
 33
0.0
  0
MTEXT
  5
344
330
203
100
AcDbEntity
  8
0
 62
     0
100
AcDbMText
 10
-6.667381003675478
 20
41.19539711796421
 30
0.0
 40
1.799999999999999
 41
0.0
 46
0.0
 71
     5
 72
     1
  1
\A1;70.43
 73
     1
 44
1.0
  0
POINT
  5
345
330
203
100
AcDbEntity
  8
Defpoints
 62
     0
100
AcDbPoint
 10
33.34968588342707
 20
76.41242322466112
 30
0.0
  0
POINT
  5
346
330
203
100
AcDbEntity
  8
Defpoints
 62
     0
100
AcDbPoint
 10
12.25278422342597
 20
5.978371011267282
 30
0.0
  0
POINT
  5
347
330
203
100
AcDbEntity
  8
Defpoints
 62
     0
100
AcDbPoint
 10
-6.66738100367548
 20
5.978371011267287
 30
0.0
  0
ENDBLK
  5
20F
330
203
100
AcDbEntity
  8
0
100
AcDbBlockEnd
  0
BLOCK
  5
228
330
21D
100
AcDbEntity
  8
0
100
AcDbBlockBegin
  2
*D10
 70
     1
 10
0.0
 20
0.0
 30
0.0
  3
*D10
  1

  0
LINE
  5
334
330
21D
100
AcDbEntity
  8
0
 62
     0
370
    -2
100
AcDbLine
 10
233.6170911261633
 20
76.41242322466111
 30
0.0
 11
277.3379786895618
 21
76.41242322466111
 31
0.0
  0
LINE
  5
335
330
21D
100
AcDbEntity
  8
0
 62
     0
370
    -2
100
AcDbLine
 10
258.4177842234259
 20
6.257077027158316
 30
0.0
 11
277.3379786895618
 21
6.257077027158311
 31
0.0
  0
LINE
  5
336
330
21D
100
AcDbEntity
  8
0
 62
     0
370
    -2
100
AcDbLine
 10
275.5379786895618
 20
74.61242322466111
 30
0.0
 11
275.5379786895618
 21
43.1347501259097
 31
0.0
  0
LINE
  5
337
330
21D
100
AcDbEntity
  8
0
 62
     0
370
    -2
100
AcDbLine
 10
275.5379786895618
 20
8.057077027158312
 30
0.0
 11
275.5379786895618
 21
39.53475012590971
 31
0.0
  0
SOLID
  5
338
330
21D
100
AcDbEntity
  8
0
 62
     0
100
AcDbTrace
 10
275.2379786895618
 20
74.61242322466111
 30
0.0
 11
275.8379786895618
 21
74.61242322466111
 31
0.0
 12
275.5379786895618
 22
76.41242322466111
 32
0.0
 13
275.5379786895618
 23
76.41242322466111
 33
0.0
  0
SOLID
  5
339
330
21D
100
AcDbEntity
  8
0
 62
     0
100
AcDbTrace
 10
275.2379786895618
 20
8.057077027158312
 30
0.0
 11
275.8379786895618
 21
8.057077027158312
 31
0.0
 12
275.5379786895618
 22
6.257077027158311
 32
0.0
 13
275.5379786895618
 23
6.257077027158311
 33
0.0
  0
MTEXT
  5
33A
330
21D
100
AcDbEntity
  8
0
 62
     0
100
AcDbMText
 10
275.5379786895618
 20
41.33475012590976
 30
0.0
 40
1.799999999999999
 41
0.0
 46
0.0
 71
     5
 72
     1
  1
\A1;70.16
 73
     1
 44
1.0
  0
POINT
  5
33B
330
21D
100
AcDbEntity
  8
Defpoints
 62
     0
100
AcDbPoint
 10
232.9920911261633
 20
76.41242322466111
 30
0.0
  0
POINT
  5
33C
330
21D
100
AcDbEntity
  8
Defpoints
 62
     0
100
AcDbPoint
 10
257.7927842234259
 20
6.257077027158317
 30
0.0
  0
POINT
  5
33D
330
21D
100
AcDbEntity
  8
Defpoints
 62
     0
100
AcDbPoint
 10
275.5379786895618
 20
6.257077027158311
 30
0.0
  0
ENDBLK
  5
229
330
21D
100
AcDbEntity
  8
0
100
AcDbBlockEnd
  0
BLOCK
  5
255
330
248
100
AcDbEntity
  8
0
100
AcDbBlockBegin
  2
*D11
 70
     1
 10
0.0
 20
0.0
 30
0.0
  3
*D11
  1

  0
LINE
  5
258
330
248
100
AcDbEntity
  8
0
 62
     0
370
    -2
100
AcDbLine
 10
39.15021446697809
 20
76.9447900489537
 30
0.0
 11
48.0656744143279
 21
91.44038168333507
 31
0.0
  0
LINE
  5
259
330
248
100
AcDbEntity
  8
0
 62
     0
370
    -2
100
AcDbLine
 10
12.25278422342597
 20
77.03742322466111
 30
0.0
 11
12.25278422342593
 21
101.5721939241789
 31
0.0
  0
ARC
  5
25A
330
248
100
AcDbEntity
  8
0
 62
     0
370
    -2
100
AcDbCircle
 10
12.25278422342597
 20
33.21242322466115
 30
0.0
 40
66.55977069951781
100
AcDbArc
 50
59.9560774515056
 51
70.68149990628318
  0
ARC
  5
25B
330
248
100
AcDbEntity
  8
0
 62
     0
370
    -2
100
AcDbCircle
 10
12.25278422342597
 20
33.21242322466115
 30
0.0
 40
66.55977069951781
100
AcDbArc
 50
77.66476401288492
 51
88.45048225053652
  0
SOLID
  5
25C
330
248
100
AcDbEntity
  8
0
 62
     0
100
AcDbTrace
 10
45.73054496666005
 20
91.08698432528688
 30
0.0
 11
45.42315122453847
 21
90.57170858618741
 31
0.0
 12
47.12267531289764
 22
89.90716522937244
 32
0.0
 13
47.12267531289764
 23
89.90716522937244
 33
0.0
  0
SOLID
  5
25D
330
248
100
AcDbEntity
  8
0
 62
     0
100
AcDbTrace
 10
14.0485631592682
 20
99.4478823246559
 30
0.0
 11
14.05667616798691
 21
100.0478274713898
 31
0.0
 12
12.25278422342593
 22
99.77219392417895
 32
0.0
 13
12.25278422342593
 23
99.77219392417895
 33
0.0
  0
MTEXT
  5
25E
330
248
100
AcDbEntity
  8
0
 62
     0
100
AcDbMText
 10
30.37202879750362
 20
97.25846956350356
 30
0.0
 40
1.799999999999999
 41
0.0
 46
0.0
 71
     5
 72
     1
  1
\A1;31.6\U+00B0
 73
     1
 44
1.0
  0
POINT
  5
25F
330
248
100
AcDbEntity
  8
Defpoints
 62
     0
100
AcDbPoint
 10
36.17321776361068
 20
95.32535211086001
 30
0.0
  0
POINT
  5
260
330
248
100
AcDbEntity
  8
Defpoints
 62
     0
100
AcDbPoint
 10
38.82278422342592
 20
76.41242322466112
 30
0.0
  0
POINT
  5
261
330
248
100
AcDbEntity
  8
Defpoints
 62
     0
100
AcDbPoint
 10
12.25278422342597
 20
76.41242322466112
 30
0.0
  0
POINT
  5
262
330
248
100
AcDbEntity
  8
Defpoints
 62
     0
100
AcDbPoint
 10
12.25278422342597
 20
5.978371011267282
 30
0.0
  0
POINT
  5
263
330
248
100
AcDbEntity
  8
Defpoints
 62
     0
100
AcDbPoint
 10
12.25278422342597
 20
33.21242322466115
 30
0.0
  0
ENDBLK
  5
256
330
248
100
AcDbEntity
  8
0
100
AcDbBlockEnd
  0
BLOCK
  5
273
330
268
100
AcDbEntity
  8
0
100
AcDbBlockBegin
  2
*D12
 70
     1
 10
0.0
 20
0.0
 30
0.0
  3
*D12
  1

  0
LINE
  5
2A8
330
268
100
AcDbEntity
  8
0
 62
     0
370
    -2
100
AcDbLine
 10
39.22278422342592
 20
75.78742322466112
 30
0.0
 11
39.22278422342592
 21
64.76891661306743
 31
0.0
  0
LINE
  5
2A9
330
268
100
AcDbEntity
  8
0
 62
     0
370
    -2
100
AcDbLine
 10
43.22278422342591
 20
75.78742322466112
 30
0.0
 11
43.22278422342591
 21
64.76891661306743
 31
0.0
  0
LINE
  5
2AA
330
268
100
AcDbEntity
  8
0
 62
     0
370
    -2
100
AcDbLine
 10
37.42278422342592
 20
66.56891661306743
 30
0.0
 11
35.62278422342592
 21
66.56891661306743
 31
0.0
  0
LINE
  5
2AB
330
268
100
AcDbEntity
  8
0
 62
     0
370
    -2
100
AcDbLine
 10
45.02278422342591
 20
66.56891661306743
 30
0.0
 11
46.82278422342592
 21
66.56891661306743
 31
0.0
  0
SOLID
  5
2AC
330
268
100
AcDbEntity
  8
0
 62
     0
100
AcDbTrace
 10
37.42278422342592
 20
66.86891661306742
 30
0.0
 11
37.42278422342592
 21
66.26891661306743
 31
0.0
 12
39.22278422342592
 22
66.56891661306743
 32
0.0
 13
39.22278422342592
 23
66.56891661306743
 33
0.0
  0
SOLID
  5
2AD
330
268
100
AcDbEntity
  8
0
 62
     0
100
AcDbTrace
 10
45.02278422342591
 20
66.86891661306742
 30
0.0
 11
45.02278422342591
 21
66.26891661306743
 31
0.0
 12
43.22278422342591
 22
66.56891661306743
 32
0.0
 13
43.22278422342591
 23
66.56891661306743
 33
0.0
  0
MTEXT
  5
2AE
330
268
100
AcDbEntity
  8
0
 62
     0
100
AcDbMText
 10
50.12278422342592
 20
66.56891661306743
 30
0.0
 40
1.799999999999999
 41
0.0
 46
0.0
 71
     5
 72
     1
  1
\A1;4.00
 73
     1
 44
1.0
  0
POINT
  5
2AF
330
268
100
AcDbEntity
  8
Defpoints
 62
     0
100
AcDbPoint
 10
39.22278422342592
 20
76.41242322466112
 30
0.0
  0
POINT
  5
2B0
330
268
100
AcDbEntity
  8
Defpoints
 62
     0
100
AcDbPoint
 10
43.22278422342591
 20
76.41242322466112
 30
0.0
  0
POINT
  5
2B1
330
268
100
AcDbEntity
  8
Defpoints
 62
     0
100
AcDbPoint
 10
43.22278422342591
 20
66.56891661306743
 30
0.0
  0
ENDBLK
  5
274
330
268
100
AcDbEntity
  8
0
100
AcDbBlockEnd
  0
BLOCK
  5
28E
330
283
100
AcDbEntity
  8
0
100
AcDbBlockBegin
  2
*D13
 70
     1
 10
0.0
 20
0.0
 30
0.0
  3
*D13
  1

  0
LINE
  5
284
330
283
100
AcDbEntity
  8
0
 62
     0
370
    -2
100
AcDbLine
 10
226.4927842234259
 20
85.12046542793019
 30
0.0
 11
226.4927842234259
 21
91.93935577253098
 31
0.0
  0
LINE
  5
285
330
283
100
AcDbEntity
  8
0
 62
     0
370
    -2
100
AcDbLine
 10
232.7934781287378
 20
85.12046542793019
 30
0.0
 11
232.7934781287378
 21
91.93935577253098
 31
0.0
  0
LINE
  5
286
330
283
100
AcDbEntity
  8
0
 62
     0
370
    -2
100
AcDbLine
 10
228.2927842234259
 20
90.13935577253098
 30
0.0
 11
230.9934781287378
 21
90.13935577253098
 31
0.0
  0
LINE
  5
287
330
283
100
AcDbEntity
  8
0
 62
     0
370
    -2
100
AcDbLine
 10
232.7934781287378
 20
90.13935577253098
 30
0.0
 11
234.5934781287378
 21
90.13935577253098
 31
0.0
  0
SOLID
  5
288
330
283
100
AcDbEntity
  8
0
 62
     0
100
AcDbTrace
 10
228.2927842234259
 20
90.43935577253098
 30
0.0
 11
228.2927842234259
 21
89.83935577253097
 31
0.0
 12
226.4927842234259
 22
90.13935577253098
 32
0.0
 13
226.4927842234259
 23
90.13935577253098
 33
0.0
  0
SOLID
  5
289
330
283
100
AcDbEntity
  8
0
 62
     0
100
AcDbTrace
 10
230.9934781287378
 20
90.43935577253098
 30
0.0
 11
230.9934781287378
 21
89.83935577253097
 31
0.0
 12
232.7934781287378
 22
90.13935577253098
 32
0.0
 13
232.7934781287378
 23
90.13935577253098
 33
0.0
  0
MTEXT
  5
28A
330
283
100
AcDbEntity
  8
0
 62
     0
100
AcDbMText
 10
238.0434781287378
 20
90.13935577253098
 30
0.0
 40
1.799999999999999
 41
0.0
 46
0.0
 71
     5
 72
     1
  1
\A1;6.30
 73
     1
 44
1.0
  0
POINT
  5
28B
330
283
100
AcDbEntity
  8
Defpoints
 62
     0
100
AcDbPoint
 10
226.4927842234259
 20
84.49546542793019
 30
0.0
  0
POINT
  5
28C
330
283
100
AcDbEntity
  8
Defpoints
 62
     0
100
AcDbPoint
 10
232.7934781287378
 20
84.49546542793019
 30
0.0
  0
POINT
  5
28D
330
283
100
AcDbEntity
  8
Defpoints
 62
     0
100
AcDbPoint
 10
232.7934781287378
 20
90.13935577253098
 30
0.0
  0
ENDBLK
  5
28F
330
283
100
AcDbEntity
  8
0
100
AcDbBlockEnd
  0
BLOCK
  5
29E
330
293
100
AcDbEntity
  8
0
100
AcDbBlockBegin
  2
*D14
 70
     1
 10
0.0
 20
0.0
 30
0.0
  3
*D14
  1

  0
LINE
  5
294
330
293
100
AcDbEntity
  8
0
 62
     0
370
    -2
100
AcDbLine
 10
227.6853437261856
 20
85.12046542793019
 30
0.0
 11
227.6853437261856
 21
92.35298479673724
 31
0.0
  0
LINE
  5
295
330
293
100
AcDbEntity
  8
0
 62
     0
370
    -2
100
AcDbLine
 10
232.7934781287378
 20
85.12046542793019
 30
0.0
 11
232.7934781287378
 21
92.35298479673724
 31
0.0
  0
LINE
  5
296
330
293
100
AcDbEntity
  8
0
 62
     0
370
    -2
100
AcDbLine
 10
225.8853437261856
 20
90.55298479673725
 30
0.0
 11
224.0853437261856
 21
90.55298479673725
 31
0.0
  0
LINE
  5
297
330
293
100
AcDbEntity
  8
0
 62
     0
370
    -2
100
AcDbLine
 10
234.5934781287378
 20
90.55298479673725
 30
0.0
 11
236.3934781287378
 21
90.55298479673725
 31
0.0
  0
SOLID
  5
298
330
293
100
AcDbEntity
  8
0
 62
     0
100
AcDbTrace
 10
225.8853437261856
 20
90.85298479673724
 30
0.0
 11
225.8853437261856
 21
90.25298479673725
 31
0.0
 12
227.6853437261856
 22
90.55298479673725
 32
0.0
 13
227.6853437261856
 23
90.55298479673725
 33
0.0
  0
SOLID
  5
299
330
293
100
AcDbEntity
  8
0
 62
     0
100
AcDbTrace
 10
234.5934781287378
 20
90.85298479673724
 30
0.0
 11
234.5934781287378
 21
90.25298479673725
 31
0.0
 12
232.7934781287378
 22
90.55298479673725
 32
0.0
 13
232.7934781287378
 23
90.55298479673725
 33
0.0
  0
MTEXT
  5
29A
330
293
100
AcDbEntity
  8
0
 62
     0
100
AcDbMText
 10
239.3934781287378
 20
90.55298479673725
 30
0.0
 40
1.799999999999999
 41
0.0
 46
0.0
 71
     5
 72
     1
  1
\A1;5.11
 73
     1
 44
1.0
  0
POINT
  5
29B
330
293
100
AcDbEntity
  8
Defpoints
 62
     0
100
AcDbPoint
 10
227.6853437261856
 20
84.49546542793019
 30
0.0
  0
POINT
  5
29C
330
293
100
AcDbEntity
  8
Defpoints
 62
     0
100
AcDbPoint
 10
232.7934781287378
 20
84.49546542793019
 30
0.0
  0
POINT
  5
29D
330
293
100
AcDbEntity
  8
Defpoints
 62
     0
100
AcDbPoint
 10
232.7934781287378
 20
90.55298479673725
 30
0.0
  0
ENDBLK
  5
29F
330
293
100
AcDbEntity
  8
0
100
AcDbBlockEnd
  0
BLOCK
  5
2BF
330
2B4
100
AcDbEntity
  8
0
100
AcDbBlockBegin
  2
*D15
 70
     1
 10
0.0
 20
0.0
 30
0.0
  3
*D15
  1

  0
LINE
  5
2CD
330
2B4
100
AcDbEntity
  8
0
 62
     0
370
    -2
100
AcDbLine
 10
32.58534372618554
 20
81.30090443434836
 30
0.0
 11
32.58534372618554
 21
88.84485801551958
 31
0.0
  0
LINE
  5
2CE
330
2B4
100
AcDbEntity
  8
0
 62
     0
370
    -2
100
AcDbLine
 10
36.58534372618554
 20
80.52753143792545
 30
0.0
 11
36.58534372618554
 21
88.84485801551958
 31
0.0
  0
LINE
  5
2CF
330
2B4
100
AcDbEntity
  8
0
 62
     0
370
    -2
100
AcDbLine
 10
30.78534372618554
 20
87.04485801551959
 30
0.0
 11
28.98534372618554
 21
87.04485801551959
 31
0.0
  0
LINE
  5
2D0
330
2B4
100
AcDbEntity
  8
0
 62
     0
370
    -2
100
AcDbLine
 10
38.38534372618554
 20
87.04485801551959
 30
0.0
 11
40.18534372618554
 21
87.04485801551959
 31
0.0
  0
SOLID
  5
2D1
330
2B4
100
AcDbEntity
  8
0
 62
     0
100
AcDbTrace
 10
30.78534372618554
 20
87.34485801551958
 30
0.0
 11
30.78534372618554
 21
86.74485801551957
 31
0.0
 12
32.58534372618554
 22
87.04485801551959
 32
0.0
 13
32.58534372618554
 23
87.04485801551959
 33
0.0
  0
SOLID
  5
2D2
330
2B4
100
AcDbEntity
  8
0
 62
     0
100
AcDbTrace
 10
38.38534372618554
 20
87.34485801551958
 30
0.0
 11
38.38534372618554
 21
86.74485801551957
 31
0.0
 12
36.58534372618554
 22
87.04485801551959
 32
0.0
 13
36.58534372618554
 23
87.04485801551959
 33
0.0
  0
MTEXT
  5
2D3
330
2B4
100
AcDbEntity
  8
0
 62
     0
100
AcDbMText
 10
43.48534372618554
 20
87.04485801551959
 30
0.0
 40
1.799999999999999
 41
0.0
 46
0.0
 71
     5
 72
     1
  1
\A1;4.00
 73
     1
 44
1.0
  0
POINT
  5
2D4
330
2B4
100
AcDbEntity
  8
Defpoints
 62
     0
100
AcDbPoint
 10
32.58534372618554
 20
80.67590443434836
 30
0.0
  0
POINT
  5
2D5
330
2B4
100
AcDbEntity
  8
Defpoints
 62
     0
100
AcDbPoint
 10
36.58534372618554
 20
79.90253143792545
 30
0.0
  0
POINT
  5
2D6
330
2B4
100
AcDbEntity
  8
Defpoints
 62
     0
100
AcDbPoint
 10
36.58534372618554
 20
87.04485801551959
 30
0.0
  0
ENDBLK
  5
2C0
330
2B4
100
AcDbEntity
  8
0
100
AcDbBlockEnd
  0
BLOCK
  5
2E3
330
2D8
100
AcDbEntity
  8
0
100
AcDbBlockBegin
  2
*D16
 70
     1
 10
0.0
 20
0.0
 30
0.0
  3
*D16
  1

  0
LINE
  5
30E
330
2D8
100
AcDbEntity
  8
0
 62
     0
370
    -2
100
AcDbLine
 10
33.34968588342707
 20
77.03742322466111
 30
0.0
 11
33.34968588342707
 21
80.63553511836792
 31
0.0
  0
LINE
  5
30F
330
2D8
100
AcDbEntity
  8
0
 62
     0
370
    -2
100
AcDbLine
 10
37.34968588342707
 20
71.4374232246611
 30
0.0
 11
37.34968588342707
 21
80.63553511836792
 31
0.0
  0
LINE
  5
310
330
2D8
100
AcDbEntity
  8
0
 62
     0
370
    -2
100
AcDbLine
 10
31.54968588342707
 20
78.83553511836791
 30
0.0
 11
29.74968588342707
 21
78.83553511836791
 31
0.0
  0
LINE
  5
311
330
2D8
100
AcDbEntity
  8
0
 62
     0
370
    -2
100
AcDbLine
 10
39.14968588342707
 20
78.83553511836791
 30
0.0
 11
40.94968588342707
 21
78.83553511836791
 31
0.0
  0
SOLID
  5
312
330
2D8
100
AcDbEntity
  8
0
 62
     0
100
AcDbTrace
 10
31.54968588342707
 20
79.13553511836791
 30
0.0
 11
31.54968588342707
 21
78.53553511836792
 31
0.0
 12
33.34968588342707
 22
78.83553511836791
 32
0.0
 13
33.34968588342707
 23
78.83553511836791
 33
0.0
  0
SOLID
  5
313
330
2D8
100
AcDbEntity
  8
0
 62
     0
100
AcDbTrace
 10
39.14968588342707
 20
79.13553511836791
 30
0.0
 11
39.14968588342707
 21
78.53553511836792
 31
0.0
 12
37.34968588342707
 22
78.83553511836791
 32
0.0
 13
37.34968588342707
 23
78.83553511836791
 33
0.0
  0
MTEXT
  5
314
330
2D8
100
AcDbEntity
  8
0
 62
     0
100
AcDbMText
 10
44.24968588342706
 20
78.83553511836791
 30
0.0
 40
1.799999999999999
 41
0.0
 46
0.0
 71
     5
 72
     1
  1
\A1;4.00
 73
     1
 44
1.0
  0
POINT
  5
315
330
2D8
100
AcDbEntity
  8
Defpoints
 62
     0
100
AcDbPoint
 10
33.34968588342707
 20
76.41242322466111
 30
0.0
  0
POINT
  5
316
330
2D8
100
AcDbEntity
  8
Defpoints
 62
     0
100
AcDbPoint
 10
37.34968588342707
 20
70.8124232246611
 30
0.0
  0
POINT
  5
317
330
2D8
100
AcDbEntity
  8
Defpoints
 62
     0
100
AcDbPoint
 10
37.34968588342707
 20
78.83553511836791
 30
0.0
  0
ENDBLK
  5
2E4
330
2D8
100
AcDbEntity
  8
0
100
AcDbBlockEnd
  0
BLOCK
  5
2FD
330
2F2
100
AcDbEntity
  8
0
100
AcDbBlockBegin
  2
*D17
 70
     1
 10
0.0
 20
0.0
 30
0.0
  3
*D17
  1

  0
LINE
  5
300
330
2F2
100
AcDbEntity
  8
0
 62
     0
370
    -2
100
AcDbLine
 10
228.4496858834271
 20
71.43742322466112
 30
0.0
 11
228.4496858834271
 21
92.47521248564385
 31
0.0
  0
LINE
  5
301
330
2F2
100
AcDbEntity
  8
0
 62
     0
370
    -2
100
AcDbLine
 10
237.4602247206663
 20
77.03742322466112
 30
0.0
 11
237.4602247206663
 21
92.47521248564385
 31
0.0
  0
LINE
  5
302
330
2F2
100
AcDbEntity
  8
0
 62
     0
370
    -2
100
AcDbLine
 10
226.6496858834271
 20
90.67521248564386
 30
0.0
 11
224.8496858834271
 21
90.67521248564386
 31
0.0
  0
LINE
  5
303
330
2F2
100
AcDbEntity
  8
0
 62
     0
370
    -2
100
AcDbLine
 10
239.2602247206664
 20
90.67521248564386
 30
0.0
 11
241.0602247206663
 21
90.67521248564386
 31
0.0
  0
SOLID
  5
304
330
2F2
100
AcDbEntity
  8
0
 62
     0
100
AcDbTrace
 10
226.6496858834271
 20
90.97521248564385
 30
0.0
 11
226.6496858834271
 21
90.37521248564386
 31
0.0
 12
228.4496858834271
 22
90.67521248564386
 32
0.0
 13
228.4496858834271
 23
90.67521248564386
 33
0.0
  0
SOLID
  5
305
330
2F2
100
AcDbEntity
  8
0
 62
     0
100
AcDbTrace
 10
239.2602247206664
 20
90.97521248564385
 30
0.0
 11
239.2602247206664
 21
90.37521248564386
 31
0.0
 12
237.4602247206663
 22
90.67521248564386
 32
0.0
 13
237.4602247206663
 23
90.67521248564386
 33
0.0
  0
MTEXT
  5
306
330
2F2
100
AcDbEntity
  8
0
 62
     0
100
AcDbMText
 10
232.9549553020467
 20
90.67521248564386
 30
0.0
 40
1.799999999999999
 41
0.0
 46
0.0
 71
     5
 72
     1
  1
\A1;9.01
 73
     1
 44
1.0
  0
POINT
  5
307
330
2F2
100
AcDbEntity
  8
Defpoints
 62
     0
100
AcDbPoint
 10
228.4496858834271
 20
70.81242322466112
 30
0.0
  0
POINT
  5
308
330
2F2
100
AcDbEntity
  8
Defpoints
 62
     0
100
AcDbPoint
 10
237.4602247206663
 20
76.41242322466112
 30
0.0
  0
POINT
  5
309
330
2F2
100
AcDbEntity
  8
Defpoints
 62
     0
100
AcDbPoint
 10
237.4602247206663
 20
90.67521248564386
 30
0.0
  0
ENDBLK
  5
2FE
330
2F2
100
AcDbEntity
  8
0
100
AcDbBlockEnd
  0
BLOCK
  5
325
330
31A
100
AcDbEntity
  8
0
100
AcDbBlockBegin
  2
*D18
 70
     1
 10
0.0
 20
0.0
 30
0.0
  3
*D18
  1

  0
LINE
  5
328
330
31A
100
AcDbEntity
  8
0
 62
     0
370
    -2
100
AcDbLine
 10
228.4496858834271
 20
71.43742322466112
 30
0.0
 11
228.4496858834271
 21
90.14313016635291
 31
0.0
  0
LINE
  5
329
330
31A
100
AcDbEntity
  8
0
 62
     0
370
    -2
100
AcDbLine
 10
232.9920911261633
 20
77.03742322466112
 30
0.0
 11
232.9920911261633
 21
90.14313016635291
 31
0.0
  0
LINE
  5
32A
330
31A
100
AcDbEntity
  8
0
 62
     0
370
    -2
100
AcDbLine
 10
226.6496858834271
 20
88.34313016635292
 30
0.0
 11
224.8496858834271
 21
88.34313016635292
 31
0.0
  0
LINE
  5
32B
330
31A
100
AcDbEntity
  8
0
 62
     0
370
    -2
100
AcDbLine
 10
234.7920911261633
 20
88.34313016635292
 30
0.0
 11
236.5920911261633
 21
88.34313016635292
 31
0.0
  0
SOLID
  5
32C
330
31A
100
AcDbEntity
  8
0
 62
     0
100
AcDbTrace
 10
226.6496858834271
 20
88.64313016635291
 30
0.0
 11
226.6496858834271
 21
88.04313016635292
 31
0.0
 12
228.4496858834271
 22
88.34313016635292
 32
0.0
 13
228.4496858834271
 23
88.34313016635292
 33
0.0
  0
SOLID
  5
32D
330
31A
100
AcDbEntity
  8
0
 62
     0
100
AcDbTrace
 10
234.7920911261633
 20
88.64313016635291
 30
0.0
 11
234.7920911261633
 21
88.04313016635292
 31
0.0
 12
232.9920911261633
 22
88.34313016635292
 32
0.0
 13
232.9920911261633
 23
88.34313016635292
 33
0.0
  0
MTEXT
  5
32E
330
31A
100
AcDbEntity
  8
0
 62
     0
100
AcDbMText
 10
240.1920911261633
 20
88.34313016635292
 30
0.0
 40
1.799999999999999
 41
0.0
 46
0.0
 71
     5
 72
     1
  1
\A1;4.54
 73
     1
 44
1.0
  0
POINT
  5
32F
330
31A
100
AcDbEntity
  8
Defpoints
 62
     0
100
AcDbPoint
 10
228.4496858834271
 20
70.81242322466112
 30
0.0
  0
POINT
  5
330
330
31A
100
AcDbEntity
  8
Defpoints
 62
     0
100
AcDbPoint
 10
232.9920911261633
 20
76.41242322466112
 30
0.0
  0
POINT
  5
331
330
31A
100
AcDbEntity
  8
Defpoints
 62
     0
100
AcDbPoint
 10
232.9920911261633
 20
88.34313016635292
 30
0.0
  0
ENDBLK
  5
326
330
31A
100
AcDbEntity
  8
0
100
AcDbBlockEnd
  0
BLOCK
  5
358
330
34D
100
AcDbEntity
  8
0
100
AcDbBlockBegin
  2
*D19
 70
     1
 10
0.0
 20
0.0
 30
0.0
  3
*D19
  1

  0
LINE
  5
35B
330
34D
100
AcDbEntity
  8
0
 62
     0
370
    -2
100
AcDbLine
 10
9.152784223425992
 20
41.81863775360552
 30
0.0
 11
9.152784223425996
 21
97.61768868174884
 31
0.0
  0
LINE
  5
35C
330
34D
100
AcDbEntity
  8
0
 62
     0
370
    -2
100
AcDbLine
 10
257.3927842234259
 20
41.95952311115376
 30
0.0
 11
257.3927842234259
 21
97.61768868174884
 31
0.0
  0
LINE
  5
35D
330
34D
100
AcDbEntity
  8
0
 62
     0
370
    -2
100
AcDbLine
 10
10.95278422342599
 20
95.81768868174885
 30
0.0
 11
127.8727842234259
 21
95.81768868174885
 31
0.0
  0
LINE
  5
35E
330
34D
100
AcDbEntity
  8
0
 62
     0
370
    -2
100
AcDbLine
 10
255.5927842234259
 20
95.81768868174885
 30
0.0
 11
138.6727842234259
 21
95.81768868174885
 31
0.0
  0
SOLID
  5
35F
330
34D
100
AcDbEntity
  8
0
 62
     0
100
AcDbTrace
 10
10.95278422342599
 20
96.11768868174884
 30
0.0
 11
10.95278422342599
 21
95.51768868174885
 31
0.0
 12
9.152784223425996
 22
95.81768868174885
 32
0.0
 13
9.152784223425996
 23
95.81768868174885
 33
0.0
  0
SOLID
  5
360
330
34D
100
AcDbEntity
  8
0
 62
     0
100
AcDbTrace
 10
255.5927842234259
 20
96.11768868174884
 30
0.0
 11
255.5927842234259
 21
95.51768868174885
 31
0.0
 12
257.3927842234259
 22
95.81768868174885
 32
0.0
 13
257.3927842234259
 23
95.81768868174885
 33
0.0
  0
MTEXT
  5
361
330
34D
100
AcDbEntity
  8
0
 62
     0
100
AcDbMText
 10
133.2727842234259
 20
95.81768868174885
 30
0.0
 40
1.799999999999999
 41
0.0
 46
0.0
 71
     5
 72
     1
  1
\A1;248.24
 73
     1
 44
1.0
  0
POINT
  5
362
330
34D
100
AcDbEntity
  8
Defpoints
 62
     0
100
AcDbPoint
 10
9.152784223425992
 20
41.19363775360552
 30
0.0
  0
POINT
  5
363
330
34D
100
AcDbEntity
  8
Defpoints
 62
     0
100
AcDbPoint
 10
257.3927842234259
 20
41.33452311115376
 30
0.0
  0
POINT
  5
364
330
34D
100
AcDbEntity
  8
Defpoints
 62
     0
100
AcDbPoint
 10
257.3927842234259
 20
95.81768868174885
 30
0.0
  0
ENDBLK
  5
359
330
34D
100
AcDbEntity
  8
0
100
AcDbBlockEnd
  0
BLOCK
  5
373
330
368
100
AcDbEntity
  8
0
100
AcDbBlockBegin
  2
*D20
 70
     1
 10
0.0
 20
0.0
 30
0.0
  3
*D20
  1

  0
LINE
  5
376
330
368
100
AcDbEntity
  8
0
 62
     0
370
    -2
100
AcDbLine
 10
145.9677842234259
 20
53.81242322466113
 30
0.0
 11
139.4059015754829
 21
53.81242322466114
 31
0.0
  0
LINE
  5
377
330
368
100
AcDbEntity
  8
0
 62
     0
370
    -2
100
AcDbLine
 10
145.9677842234259
 20
40.61242322466113
 30
0.0
 11
139.4059015754829
 21
40.61242322466114
 31
0.0
  0
LINE
  5
378
330
368
100
AcDbEntity
  8
0
 62
     0
370
    -2
100
AcDbLine
 10
141.2059015754829
 20
52.01242322466114
 30
0.0
 11
141.2059015754829
 21
49.01242322466114
 31
0.0
  0
LINE
  5
379
330
368
100
AcDbEntity
  8
0
 62
     0
370
    -2
100
AcDbLine
 10
141.2059015754829
 20
42.41242322466113
 30
0.0
 11
141.2059015754829
 21
45.41242322466113
 31
0.0
  0
SOLID
  5
37A
330
368
100
AcDbEntity
  8
0
 62
     0
100
AcDbTrace
 10
140.9059015754829
 20
52.01242322466114
 30
0.0
 11
141.5059015754829
 21
52.01242322466114
 31
0.0
 12
141.2059015754829
 22
53.81242322466114
 32
0.0
 13
141.2059015754829
 23
53.81242322466114
 33
0.0
  0
SOLID
  5
37B
330
368
100
AcDbEntity
  8
0
 62
     0
100
AcDbTrace
 10
140.9059015754829
 20
42.41242322466113
 30
0.0
 11
141.5059015754829
 21
42.41242322466113
 31
0.0
 12
141.2059015754829
 22
40.61242322466114
 32
0.0
 13
141.2059015754829
 23
40.61242322466114
 33
0.0
  0
MTEXT
  5
37C
330
368
100
AcDbEntity
  8
0
 62
     0
100
AcDbMText
 10
141.2059015754829
 20
47.21242322466116
 30
0.0
 40
1.799999999999999
 41
0.0
 46
0.0
 71
     5
 72
     1
  1
\A1;13.20
 73
     1
 44
1.0
  0
POINT
  5
37D
330
368
100
AcDbEntity
  8
Defpoints
 62
     0
100
AcDbPoint
 10
146.5927842234259
 20
53.81242322466113
 30
0.0
  0
POINT
  5
37E
330
368
100
AcDbEntity
  8
Defpoints
 62
     0
100
AcDbPoint
 10
146.5927842234259
 20
40.61242322466113
 30
0.0
  0
POINT
  5
37F
330
368
100
AcDbEntity
  8
Defpoints
 62
     0
100
AcDbPoint
 10
141.2059015754829
 20
40.61242322466114
 30
0.0
  0
ENDBLK
  5
374
330
368
100
AcDbEntity
  8
0
100
AcDbBlockEnd
  0
BLOCK
  5
38E
330
383
100
AcDbEntity
  8
0
100
AcDbBlockBegin
  2
*D21
 70
     1
 10
0.0
 20
0.0
 30
0.0
  3
*D21
  1

  0
LINE
  5
407
330
383
100
AcDbEntity
  8
0
 62
     0
370
    -2
100
AcDbLine
 10
128.5256506959845
 20
69.11242349844446
 30
0.0
 11
112.307120165668
 21
69.11242349844446
 31
0.0
  0
LINE
  5
408
330
383
100
AcDbEntity
  8
0
 62
     0
370
    -2
100
AcDbLine
 10
128.557830802051
 20
12.41107660929359
 30
0.0
 11
112.307120165668
 21
12.4110766092936
 31
0.0
  0
LINE
  5
409
330
383
100
AcDbEntity
  8
0
 62
     0
370
    -2
100
AcDbLine
 10
114.107120165668
 20
67.31242349844446
 30
0.0
 11
114.107120165668
 21
42.56175005386903
 31
0.0
  0
LINE
  5
40A
330
383
100
AcDbEntity
  8
0
 62
     0
370
    -2
100
AcDbLine
 10
114.107120165668
 20
14.2110766092936
 30
0.0
 11
114.107120165668
 21
38.96175005386903
 31
0.0
  0
SOLID
  5
40B
330
383
100
AcDbEntity
  8
0
 62
     0
100
AcDbTrace
 10
113.807120165668
 20
67.31242349844446
 30
0.0
 11
114.407120165668
 21
67.31242349844446
 31
0.0
 12
114.107120165668
 22
69.11242349844446
 32
0.0
 13
114.107120165668
 23
69.11242349844446
 33
0.0
  0
SOLID
  5
40C
330
383
100
AcDbEntity
  8
0
 62
     0
100
AcDbTrace
 10
113.807120165668
 20
14.2110766092936
 30
0.0
 11
114.407120165668
 21
14.2110766092936
 31
0.0
 12
114.107120165668
 22
12.4110766092936
 32
0.0
 13
114.107120165668
 23
12.4110766092936
 33
0.0
  0
MTEXT
  5
40D
330
383
100
AcDbEntity
  8
0
 62
     0
100
AcDbMText
 10
114.107120165668
 20
40.76175005386905
 30
0.0
 40
1.799999999999999
 41
0.0
 46
0.0
 71
     5
 72
     1
  1
\A1;56.70
 73
     1
 44
1.0
  0
POINT
  5
40E
330
383
100
AcDbEntity
  8
Defpoints
 62
     0
100
AcDbPoint
 10
129.1506506959845
 20
69.11242349844446
 30
0.0
  0
POINT
  5
40F
330
383
100
AcDbEntity
  8
Defpoints
 62
     0
100
AcDbPoint
 10
129.182830802051
 20
12.41107660929359
 30
0.0
  0
POINT
  5
410
330
383
100
AcDbEntity
  8
Defpoints
 62
     0
100
AcDbPoint
 10
114.107120165668
 20
12.4110766092936
 30
0.0
  0
ENDBLK
  5
38F
330
383
100
AcDbEntity
  8
0
100
AcDbBlockEnd
  0
BLOCK
  5
3BB
330
3AF
100
AcDbEntity
  8
0
100
AcDbBlockBegin
  2
*D22
 70
     1
 10
0.0
 20
0.0
 30
0.0
  3
*D22
  1

  0
LINE
  5
3BE
330
3AF
100
AcDbEntity
  8
0
 62
     0
370
    -2
100
AcDbLine
 10
129.8082280778476
 20
9.011076655713608
 30
0.0
 11
144.0575878490176
 21
9.011076655713603
 31
0.0
  0
LINE
  5
3BF
330
3AF
100
AcDbEntity
  8
0
 62
     0
370
    -2
100
AcDbLine
 10
129.8082280778476
 20
6.111095692146307
 30
0.0
 11
144.0575878490176
 21
6.111095692146302
 31
0.0
  0
LINE
  5
3C0
330
3AF
100
AcDbEntity
  8
0
 62
     0
370
    -2
100
AcDbLine
 10
142.2575878490175
 20
10.8110766557136
 30
0.0
 11
142.2575878490175
 21
12.6110766557136
 31
0.0
  0
LINE
  5
3C1
330
3AF
100
AcDbEntity
  8
0
 62
     0
370
    -2
100
AcDbLine
 10
142.2575878490175
 20
4.311095692146302
 30
0.0
 11
142.2575878490175
 21
2.511095692146303
 31
0.0
  0
LINE
  5
3C2
330
3AF
100
AcDbEntity
  8
0
 62
     0
370
    -2
100
AcDbLine
 10
142.2575878490175
 20
2.511095692146303
 30
0.0
 11
140.4575878490175
 21
2.511095692146304
 31
0.0
  0
SOLID
  5
3C3
330
3AF
100
AcDbEntity
  8
0
 62
     0
100
AcDbTrace
 10
141.9575878490175
 20
10.8110766557136
 30
0.0
 11
142.5575878490175
 21
10.8110766557136
 31
0.0
 12
142.2575878490175
 22
9.011076655713605
 32
0.0
 13
142.2575878490175
 23
9.011076655713605
 33
0.0
  0
SOLID
  5
3C4
330
3AF
100
AcDbEntity
  8
0
 62
     0
100
AcDbTrace
 10
141.9575878490175
 20
4.311095692146303
 30
0.0
 11
142.5575878490175
 21
4.311095692146302
 31
0.0
 12
142.2575878490175
 22
6.111095692146302
 32
0.0
 13
142.2575878490175
 23
6.111095692146302
 33
0.0
  0
MTEXT
  5
3C5
330
3AF
100
AcDbEntity
  8
0
 62
     0
100
AcDbMText
 10
137.0075878490175
 20
2.511095692146326
 30
0.0
 40
1.799999999999999
 41
0.0
 46
0.0
 71
     5
 72
     1
  1
\A1;2.90
 73
     1
 44
1.0
  0
POINT
  5
3C6
330
3AF
100
AcDbEntity
  8
Defpoints
 62
     0
100
AcDbPoint
 10
129.1832280778476
 20
9.011076655713608
 30
0.0
  0
POINT
  5
3C7
330
3AF
100
AcDbEntity
  8
Defpoints
 62
     0
100
AcDbPoint
 10
129.1832280778476
 20
6.111095692146307
 30
0.0
  0
POINT
  5
3C8
330
3AF
100
AcDbEntity
  8
Defpoints
 62
     0
100
AcDbPoint
 10
142.2575878490175
 20
6.111095692146302
 30
0.0
  0
ENDBLK
  5
3BC
330
3AF
100
AcDbEntity
  8
0
100
AcDbBlockEnd
  0
BLOCK
  5
3D7
330
3CC
100
AcDbEntity
  8
0
100
AcDbBlockBegin
  2
*D23
 70
     1
 10
0.0
 20
0.0
 30
0.0
  3
*D23
  1

  0
LINE
  5
3DA
330
3CC
100
AcDbEntity
  8
0
 62
     0
370
    -2
100
AcDbLine
 10
129.7746858834271
 20
76.41242322466112
 30
0.0
 11
166.8428414728245
 21
76.41242322466111
 31
0.0
  0
LINE
  5
3DB
330
3CC
100
AcDbEntity
  8
0
 62
     0
370
    -2
100
AcDbLine
 10
129.8082280778476
 20
6.111095692146307
 30
0.0
 11
166.8428414728245
 21
6.111095692146295
 31
0.0
  0
LINE
  5
3DC
330
3CC
100
AcDbEntity
  8
0
 62
     0
370
    -2
100
AcDbLine
 10
165.0428414728246
 20
74.61242322466111
 30
0.0
 11
165.0428414728245
 21
43.0617594584037
 31
0.0
  0
LINE
  5
3DD
330
3CC
100
AcDbEntity
  8
0
 62
     0
370
    -2
100
AcDbLine
 10
165.0428414728245
 20
7.911095692146297
 30
0.0
 11
165.0428414728245
 21
39.46175945840371
 31
0.0
  0
SOLID
  5
3DE
330
3CC
100
AcDbEntity
  8
0
 62
     0
100
AcDbTrace
 10
164.7428414728245
 20
74.61242322466111
 30
0.0
 11
165.3428414728246
 21
74.61242322466111
 31
0.0
 12
165.0428414728246
 22
76.41242322466111
 32
0.0
 13
165.0428414728246
 23
76.41242322466111
 33
0.0
  0
SOLID
  5
3DF
330
3CC
100
AcDbEntity
  8
0
 62
     0
100
AcDbTrace
 10
164.7428414728245
 20
7.911095692146297
 30
0.0
 11
165.3428414728245
 21
7.911095692146297
 31
0.0
 12
165.0428414728245
 22
6.111095692146297
 32
0.0
 13
165.0428414728245
 23
6.111095692146297
 33
0.0
  0
MTEXT
  5
3E0
330
3CC
100
AcDbEntity
  8
0
 62
     0
100
AcDbMText
 10
165.0428414728245
 20
41.26175945840373
 30
0.0
 40
1.799999999999999
 41
0.0
 46
0.0
 71
     5
 72
     1
  1
\A1;70.30
 73
     1
 44
1.0
  0
POINT
  5
3E1
330
3CC
100
AcDbEntity
  8
Defpoints
 62
     0
100
AcDbPoint
 10
129.1496858834271
 20
76.41242322466112
 30
0.0
  0
POINT
  5
3E2
330
3CC
100
AcDbEntity
  8
Defpoints
 62
     0
100
AcDbPoint
 10
129.1832280778476
 20
6.111095692146307
 30
0.0
  0
POINT
  5
3E3
330
3CC
100
AcDbEntity
  8
Defpoints
 62
     0
100
AcDbPoint
 10
165.0428414728245
 20
6.111095692146297
 30
0.0
  0
ENDBLK
  5
3D8
330
3CC
100
AcDbEntity
  8
0
100
AcDbBlockEnd
  0
BLOCK
  5
3F3
330
3E7
100
AcDbEntity
  8
0
100
AcDbBlockBegin
  2
*D24
 70
     1
 10
0.0
 20
0.0
 30
0.0
  3
*D24
  1

  0
LINE
  5
3F6
330
3E7
100
AcDbEntity
  8
0
 62
     0
370
    -2
100
AcDbLine
 10
129.8082280778476
 20
9.011076655713608
 30
0.0
 11
142.8001196526693
 21
9.011076655713605
 31
0.0
  0
LINE
  5
3F7
330
3E7
100
AcDbEntity
  8
0
 62
     0
370
    -2
100
AcDbLine
 10
129.8082280778476
 20
5.911095563307099
 30
0.0
 11
142.8001196526693
 21
5.911095563307094
 31
0.0
  0
LINE
  5
3F8
330
3E7
100
AcDbEntity
  8
0
 62
     0
370
    -2
100
AcDbLine
 10
141.0001196526693
 20
10.8110766557136
 30
0.0
 11
141.0001196526693
 21
12.6110766557136
 31
0.0
  0
LINE
  5
3F9
330
3E7
100
AcDbEntity
  8
0
 62
     0
370
    -2
100
AcDbLine
 10
141.0001196526693
 20
4.111095563307095
 30
0.0
 11
141.0001196526693
 21
2.311095563307095
 31
0.0
  0
LINE
  5
3FA
330
3E7
100
AcDbEntity
  8
0
 62
     0
370
    -2
100
AcDbLine
 10
141.0001196526693
 20
2.311095563307095
 30
0.0
 11
139.2001196526693
 21
2.311095563307096
 31
0.0
  0
SOLID
  5
3FB
330
3E7
100
AcDbEntity
  8
0
 62
     0
100
AcDbTrace
 10
140.7001196526693
 20
10.8110766557136
 30
0.0
 11
141.3001196526693
 21
10.8110766557136
 31
0.0
 12
141.0001196526693
 22
9.011076655713605
 32
0.0
 13
141.0001196526693
 23
9.011076655713605
 33
0.0
  0
SOLID
  5
3FC
330
3E7
100
AcDbEntity
  8
0
 62
     0
100
AcDbTrace
 10
140.7001196526693
 20
4.111095563307095
 30
0.0
 11
141.3001196526693
 21
4.111095563307095
 31
0.0
 12
141.0001196526693
 22
5.911095563307095
 32
0.0
 13
141.0001196526693
 23
5.911095563307095
 33
0.0
  0
MTEXT
  5
3FD
330
3E7
100
AcDbEntity
  8
0
 62
     0
100
AcDbMText
 10
136.0501196526693
 20
2.311095563307118
 30
0.0
 40
1.799999999999999
 41
0.0
 46
0.0
 71
     5
 72
     1
  1
\A1;3.10
 73
     1
 44
1.0
  0
POINT
  5
3FE
330
3E7
100
AcDbEntity
  8
Defpoints
 62
     0
100
AcDbPoint
 10
129.1832280778476
 20
9.011076655713608
 30
0.0
  0
POINT
  5
3FF
330
3E7
100
AcDbEntity
  8
Defpoints
 62
     0
100
AcDbPoint
 10
129.1832280778476
 20
5.911095563307099
 30
0.0
  0
POINT
  5
400
330
3E7
100
AcDbEntity
  8
Defpoints
 62
     0
100
AcDbPoint
 10
141.0001196526693
 20
5.911095563307095
 30
0.0
  0
ENDBLK
  5
3F4
330
3E7
100
AcDbEntity
  8
0
100
AcDbBlockEnd
  0
BLOCK
  5
420
330
415
100
AcDbEntity
  8
0
100
AcDbBlockBegin
  2
*D25
 70
     1
 10
0.0
 20
0.0
 30
0.0
  3
*D25
  1

  0
LINE
  5
423
330
415
100
AcDbEntity
  8
0
 62
     0
370
    -2
100
AcDbLine
 10
9.152784223425996
 20
41.71863768918592
 30
0.0
 11
9.152784223425999
 21
90.95119977973171
 31
0.0
  0
LINE
  5
424
330
415
100
AcDbEntity
  8
0
 62
     0
370
    -2
100
AcDbLine
 10
257.1889927861644
 20
41.71863768918591
 30
0.0
 11
257.1889927861644
 21
90.95119977973171
 31
0.0
  0
LINE
  5
425
330
415
100
AcDbEntity
  8
0
 62
     0
370
    -2
100
AcDbLine
 10
10.952784223426
 20
89.15119977973171
 30
0.0
 11
127.9208885047952
 21
89.15119977973171
 31
0.0
  0
LINE
  5
426
330
415
100
AcDbEntity
  8
0
 62
     0
370
    -2
100
AcDbLine
 10
255.3889927861643
 20
89.15119977973171
 30
0.0
 11
138.4208885047952
 21
89.15119977973171
 31
0.0
  0
SOLID
  5
427
330
415
100
AcDbEntity
  8
0
 62
     0
100
AcDbTrace
 10
10.952784223426
 20
89.4511997797317
 30
0.0
 11
10.952784223426
 21
88.85119977973172
 31
0.0
 12
9.152784223425999
 22
89.15119977973171
 32
0.0
 13
9.152784223425999
 23
89.15119977973171
 33
0.0
  0
SOLID
  5
428
330
415
100
AcDbEntity
  8
0
 62
     0
100
AcDbTrace
 10
255.3889927861643
 20
89.4511997797317
 30
0.0
 11
255.3889927861643
 21
88.85119977973172
 31
0.0
 12
257.1889927861644
 22
89.15119977973171
 32
0.0
 13
257.1889927861644
 23
89.15119977973171
 33
0.0
  0
MTEXT
  5
429
330
415
100
AcDbEntity
  8
0
 62
     0
100
AcDbMText
 10
133.1708885047952
 20
89.15119977973171
 30
0.0
 40
1.799999999999999
 41
0.0
 46
0.0
 71
     5
 72
     1
  1
\A1;248.04
 73
     1
 44
1.0
  0
POINT
  5
42A
330
415
100
AcDbEntity
  8
Defpoints
 62
     0
100
AcDbPoint
 10
9.152784223425996
 20
41.09363768918592
 30
0.0
  0
POINT
  5
42B
330
415
100
AcDbEntity
  8
Defpoints
 62
     0
100
AcDbPoint
 10
257.1889927861644
 20
41.09363768918591
 30
0.0
  0
POINT
  5
42C
330
415
100
AcDbEntity
  8
Defpoints
 62
     0
100
AcDbPoint
 10
257.1889927861644
 20
89.15119977973171
 30
0.0
  0
ENDBLK
  5
421
330
415
100
AcDbEntity
  8
0
100
AcDbBlockEnd
  0
BLOCK
  5
43E
330
433
100
AcDbEntity
  8
0
100
AcDbBlockBegin
  2
*D26
 70
     1
 10
0.0
 20
0.0
 30
0.0
  3
*D26
  1

  0
LINE
  5
441
330
433
100
AcDbEntity
  8
0
 62
     0
370
    -2
100
AcDbLine
 10
97.35278422342595
 20
99.79627563871799
 30
0.0
 11
97.35278422342595
 21
108.9873367920735
 31
0.0
  0
LINE
  5
442
330
433
100
AcDbEntity
  8
0
 62
     0
370
    -2
100
AcDbLine
 10
167.7927842234259
 20
99.79627563871797
 30
0.0
 11
167.7927842234259
 21
108.9873367920735
 31
0.0
  0
LINE
  5
443
330
433
100
AcDbEntity
  8
0
 62
     0
370
    -2
100
AcDbLine
 10
99.15278422342595
 20
107.1873367920735
 30
0.0
 11
128.2227842234259
 21
107.1873367920735
 31
0.0
  0
LINE
  5
444
330
433
100
AcDbEntity
  8
0
 62
     0
370
    -2
100
AcDbLine
 10
165.9927842234259
 20
107.1873367920735
 30
0.0
 11
136.9227842234259
 21
107.1873367920735
 31
0.0
  0
SOLID
  5
445
330
433
100
AcDbEntity
  8
0
 62
     0
100
AcDbTrace
 10
99.15278422342595
 20
107.4873367920735
 30
0.0
 11
99.15278422342595
 21
106.8873367920735
 31
0.0
 12
97.35278422342595
 22
107.1873367920735
 32
0.0
 13
97.35278422342595
 23
107.1873367920735
 33
0.0
  0
SOLID
  5
446
330
433
100
AcDbEntity
  8
0
 62
     0
100
AcDbTrace
 10
165.9927842234259
 20
107.4873367920735
 30
0.0
 11
165.9927842234259
 21
106.8873367920735
 31
0.0
 12
167.7927842234259
 22
107.1873367920735
 32
0.0
 13
167.7927842234259
 23
107.1873367920735
 33
0.0
  0
MTEXT
  5
447
330
433
100
AcDbEntity
  8
0
 62
     0
100
AcDbMText
 10
132.5727842234259
 20
107.1873367920735
 30
0.0
 40
1.799999999999999
 41
0.0
 46
0.0
 71
     5
 72
     1
  1
\A1;70.44
 73
     1
 44
1.0
  0
POINT
  5
448
330
433
100
AcDbEntity
  8
Defpoints
 62
     0
100
AcDbPoint
 10
97.35278422342595
 20
99.17127563871799
 30
0.0
  0
POINT
  5
449
330
433
100
AcDbEntity
  8
Defpoints
 62
     0
100
AcDbPoint
 10
167.7927842234259
 20
99.17127563871797
 30
0.0
  0
POINT
  5
44A
330
433
100
AcDbEntity
  8
Defpoints
 62
     0
100
AcDbPoint
 10
167.7927842234259
 20
107.1873367920735
 30
0.0
  0
ENDBLK
  5
43F
330
433
100
AcDbEntity
  8
0
100
AcDbBlockEnd
  0
BLOCK
  5
459
330
44E
100
AcDbEntity
  8
0
100
AcDbBlockBegin
  2
*D27
 70
     1
 10
0.0
 20
0.0
 30
0.0
  3
*D27
  1

  0
LINE
  5
45C
330
44E
100
AcDbEntity
  8
0
 62
     0
370
    -2
100
AcDbLine
 10
130.8832280778476
 20
10.08607665571361
 30
0.0
 11
130.8832280778476
 21
-10.84554610235703
 31
0.0
  0
LINE
  5
45D
330
44E
100
AcDbEntity
  8
0
 62
     0
370
    -2
100
AcDbLine
 10
225.0832280778476
 20
10.08607665571361
 30
0.0
 11
225.0832280778476
 21
-10.84554610235703
 31
0.0
  0
LINE
  5
45E
330
44E
100
AcDbEntity
  8
0
 62
     0
370
    -2
100
AcDbLine
 10
132.6832280778476
 20
-9.045546102357036
 30
0.0
 11
173.6332280778476
 21
-9.045546102357036
 31
0.0
  0
LINE
  5
45F
330
44E
100
AcDbEntity
  8
0
 62
     0
370
    -2
100
AcDbLine
 10
223.2832280778476
 20
-9.045546102357036
 30
0.0
 11
182.3332280778475
 21
-9.045546102357036
 31
0.0
  0
SOLID
  5
460
330
44E
100
AcDbEntity
  8
0
 62
     0
100
AcDbTrace
 10
132.6832280778476
 20
-8.745546102357035
 30
0.0
 11
132.6832280778476
 21
-9.345546102357037
 31
0.0
 12
130.8832280778476
 22
-9.045546102357036
 32
0.0
 13
130.8832280778476
 23
-9.045546102357036
 33
0.0
  0
SOLID
  5
461
330
44E
100
AcDbEntity
  8
0
 62
     0
100
AcDbTrace
 10
223.2832280778476
 20
-8.745546102357035
 30
0.0
 11
223.2832280778476
 21
-9.345546102357037
 31
0.0
 12
225.0832280778476
 22
-9.045546102357036
 32
0.0
 13
225.0832280778476
 23
-9.045546102357036
 33
0.0
  0
MTEXT
  5
462
330
44E
100
AcDbEntity
  8
0
 62
     0
100
AcDbMText
 10
177.9832280778475
 20
-9.045546102357036
 30
0.0
 40
1.799999999999999
 41
0.0
 46
0.0
 71
     5
 72
     1
  1
\A1;94.20
 73
     1
 44
1.0
  0
POINT
  5
463
330
44E
100
AcDbEntity
  8
Defpoints
 62
     0
100
AcDbPoint
 10
130.8832280778476
 20
10.71107665571361
 30
0.0
  0
POINT
  5
464
330
44E
100
AcDbEntity
  8
Defpoints
 62
     0
100
AcDbPoint
 10
225.0832280778476
 20
10.71107665571361
 30
0.0
  0
POINT
  5
465
330
44E
100
AcDbEntity
  8
Defpoints
 62
     0
100
AcDbPoint
 10
225.0832280778476
 20
-9.045546102357036
 30
0.0
  0
ENDBLK
  5
45A
330
44E
100
AcDbEntity
  8
0
100
AcDbBlockEnd
  0
BLOCK
  5
474
330
469
100
AcDbEntity
  8
0
100
AcDbBlockBegin
  2
*D28
 70
     1
 10
0.0
 20
0.0
 30
0.0
  3
*D28
  1

  0
LINE
  5
477
330
469
100
AcDbEntity
  8
0
 62
     0
370
    -2
100
AcDbLine
 10
40.74968588342707
 20
71.43742322466112
 30
0.0
 11
40.74968588342707
 21
98.96726060011115
 31
0.0
  0
LINE
  5
478
330
469
100
AcDbEntity
  8
0
 62
     0
370
    -2
100
AcDbLine
 10
127.4496858834271
 20
71.43742322466112
 30
0.0
 11
127.4496858834271
 21
98.96726060011115
 31
0.0
  0
LINE
  5
479
330
469
100
AcDbEntity
  8
0
 62
     0
370
    -2
100
AcDbLine
 10
42.54968588342706
 20
97.16726060011115
 30
0.0
 11
79.74968588342708
 21
97.16726060011115
 31
0.0
  0
LINE
  5
47A
330
469
100
AcDbEntity
  8
0
 62
     0
370
    -2
100
AcDbLine
 10
125.6496858834271
 20
97.16726060011115
 30
0.0
 11
88.44968588342707
 21
97.16726060011115
 31
0.0
  0
SOLID
  5
47B
330
469
100
AcDbEntity
  8
0
 62
     0
100
AcDbTrace
 10
42.54968588342706
 20
97.46726060011114
 30
0.0
 11
42.54968588342706
 21
96.86726060011116
 31
0.0
 12
40.74968588342707
 22
97.16726060011115
 32
0.0
 13
40.74968588342707
 23
97.16726060011115
 33
0.0
  0
SOLID
  5
47C
330
469
100
AcDbEntity
  8
0
 62
     0
100
AcDbTrace
 10
125.6496858834271
 20
97.46726060011114
 30
0.0
 11
125.6496858834271
 21
96.86726060011116
 31
0.0
 12
127.4496858834271
 22
97.16726060011115
 32
0.0
 13
127.4496858834271
 23
97.16726060011115
 33
0.0
  0
MTEXT
  5
47D
330
469
100
AcDbEntity
  8
0
 62
     0
100
AcDbMText
 10
84.09968588342707
 20
97.16726060011115
 30
0.0
 40
1.799999999999999
 41
0.0
 46
0.0
 71
     5
 72
     1
  1
\A1;86.70
 73
     1
 44
1.0
  0
POINT
  5
47E
330
469
100
AcDbEntity
  8
Defpoints
 62
     0
100
AcDbPoint
 10
40.74968588342707
 20
70.81242322466112
 30
0.0
  0
POINT
  5
47F
330
469
100
AcDbEntity
  8
Defpoints
 62
     0
100
AcDbPoint
 10
127.4496858834271
 20
70.81242322466112
 30
0.0
  0
POINT
  5
480
330
469
100
AcDbEntity
  8
Defpoints
 62
     0
100
AcDbPoint
 10
127.4496858834271
 20
97.16726060011115
 30
0.0
  0
ENDBLK
  5
475
330
469
100
AcDbEntity
  8
0
100
AcDbBlockEnd
  0
BLOCK
  5
4A7
330
49C
100
AcDbEntity
  8
0
100
AcDbBlockBegin
  2
*D29
 70
     1
 10
0.0
 20
0.0
 30
0.0
  3
*D29
  1

  0
LINE
  5
4F0
330
49C
100
AcDbEntity
  8
Keep-Out
 62
     0
370
    -2
100
AcDbLine
 10
172.1177842234259
 20
56.46242322466114
 30
0.0
 11
231.1482352442173
 21
56.46242322466111
 31
0.0
  0
LINE
  5
4F1
330
49C
100
AcDbEntity
  8
Keep-Out
 62
     0
370
    -2
100
AcDbLine
 10
172.1177842234259
 20
74.91242322466111
 30
0.0
 11
231.1482352442173
 21
74.9124232246611
 31
0.0
  0
LINE
  5
4F2
330
49C
100
AcDbEntity
  8
Keep-Out
 62
     0
370
    -2
100
AcDbLine
 10
229.3482352442173
 20
58.26242322466112
 30
0.0
 11
229.3482352442173
 21
63.88742322466111
 31
0.0
  0
LINE
  5
4F3
330
49C
100
AcDbEntity
  8
Keep-Out
 62
     0
370
    -2
100
AcDbLine
 10
229.3482352442173
 20
73.1124232246611
 30
0.0
 11
229.3482352442173
 21
67.4874232246611
 31
0.0
  0
SOLID
  5
4F4
330
49C
100
AcDbEntity
  8
Keep-Out
 62
     0
100
AcDbTrace
 10
229.0482352442173
 20
58.26242322466112
 30
0.0
 11
229.6482352442173
 21
58.26242322466112
 31
0.0
 12
229.3482352442173
 22
56.46242322466112
 32
0.0
 13
229.3482352442173
 23
56.46242322466112
 33
0.0
  0
SOLID
  5
4F5
330
49C
100
AcDbEntity
  8
Keep-Out
 62
     0
100
AcDbTrace
 10
229.0482352442173
 20
73.1124232246611
 30
0.0
 11
229.6482352442173
 21
73.1124232246611
 31
0.0
 12
229.3482352442173
 22
74.9124232246611
 32
0.0
 13
229.3482352442173
 23
74.9124232246611
 33
0.0
  0
MTEXT
  5
4F6
330
49C
100
AcDbEntity
  8
Keep-Out
 62
     0
100
AcDbMText
 10
229.3482352442173
 20
65.68742322466114
 30
0.0
 40
1.799999999999999
 41
0.0
 46
0.0
 71
     5
 72
     1
  1
\A1;18.45
 73
     1
 44
1.0
  0
POINT
  5
4F7
330
49C
100
AcDbEntity
  8
Defpoints
 62
     0
100
AcDbPoint
 10
171.4927842234259
 20
56.46242322466114
 30
0.0
  0
POINT
  5
4F8
330
49C
100
AcDbEntity
  8
Defpoints
 62
     0
100
AcDbPoint
 10
171.4927842234259
 20
74.91242322466111
 30
0.0
  0
POINT
  5
4F9
330
49C
100
AcDbEntity
  8
Defpoints
 62
     0
100
AcDbPoint
 10
229.3482352442173
 20
74.9124232246611
 30
0.0
  0
ENDBLK
  5
4A8
330
49C
100
AcDbEntity
  8
0
100
AcDbBlockEnd
  0
BLOCK
  5
4C2
330
4B7
100
AcDbEntity
  8
0
100
AcDbBlockBegin
  2
*D30
 70
     1
 10
0.0
 20
0.0
 30
0.0
  3
*D30
  1

  0
LINE
  5
4C5
330
4B7
100
AcDbEntity
  8
Keep-Out
 62
     0
370
    -2
100
AcDbLine
 10
93.02778422342596
 20
59.11242322466112
 30
0.0
 11
31.54968588342708
 21
59.11242322466114
 31
0.0
  0
LINE
  5
4C6
330
4B7
100
AcDbEntity
  8
Keep-Out
 62
     0
370
    -2
100
AcDbLine
 10
93.02778422342596
 20
76.41242322466112
 30
0.0
 11
31.54968588342708
 21
76.41242322466114
 31
0.0
  0
LINE
  5
4C7
330
4B7
100
AcDbEntity
  8
Keep-Out
 62
     0
370
    -2
100
AcDbLine
 10
33.34968588342707
 20
60.91242322466114
 30
0.0
 11
33.34968588342707
 21
65.96242322466114
 31
0.0
  0
LINE
  5
4C8
330
4B7
100
AcDbEntity
  8
Keep-Out
 62
     0
370
    -2
100
AcDbLine
 10
33.34968588342707
 20
74.61242322466112
 30
0.0
 11
33.34968588342707
 21
69.56242322466113
 31
0.0
  0
SOLID
  5
4C9
330
4B7
100
AcDbEntity
  8
Keep-Out
 62
     0
100
AcDbTrace
 10
33.04968588342708
 20
60.91242322466114
 30
0.0
 11
33.64968588342707
 21
60.91242322466114
 31
0.0
 12
33.34968588342707
 22
59.11242322466114
 32
0.0
 13
33.34968588342707
 23
59.11242322466114
 33
0.0
  0
SOLID
  5
4CA
330
4B7
100
AcDbEntity
  8
Keep-Out
 62
     0
100
AcDbTrace
 10
33.04968588342708
 20
74.61242322466112
 30
0.0
 11
33.64968588342707
 21
74.61242322466112
 31
0.0
 12
33.34968588342707
 22
76.41242322466112
 32
0.0
 13
33.34968588342707
 23
76.41242322466112
 33
0.0
  0
MTEXT
  5
4CB
330
4B7
100
AcDbEntity
  8
Keep-Out
 62
     0
100
AcDbMText
 10
33.34968588342706
 20
67.76242322466115
 30
0.0
 40
1.799999999999999
 41
0.0
 46
0.0
 71
     5
 72
     1
  1
\A1;17.30
 73
     1
 44
1.0
  0
POINT
  5
4CC
330
4B7
100
AcDbEntity
  8
Defpoints
 62
     0
100
AcDbPoint
 10
93.65278422342596
 20
59.11242322466112
 30
0.0
  0
POINT
  5
4CD
330
4B7
100
AcDbEntity
  8
Defpoints
 62
     0
100
AcDbPoint
 10
93.65278422342596
 20
76.41242322466112
 30
0.0
  0
POINT
  5
4CE
330
4B7
100
AcDbEntity
  8
Defpoints
 62
     0
100
AcDbPoint
 10
33.34968588342707
 20
76.41242322466112
 30
0.0
  0
ENDBLK
  5
4C3
330
4B7
100
AcDbEntity
  8
0
100
AcDbBlockEnd
  0
BLOCK
  5
4DD
330
4D2
100
AcDbEntity
  8
0
100
AcDbBlockBegin
  2
*D31
 70
     1
 10
0.0
 20
0.0
 30
0.0
  3
*D31
  1

  0
LINE
  5
4E0
330
4D2
100
AcDbEntity
  8
Keep-Out
 62
     0
370
    -2
100
AcDbLine
 10
80.52778422342596
 20
53.81242322466113
 30
0.0
 11
71.6294367684779
 21
53.81242322466114
 31
0.0
  0
LINE
  5
4E1
330
4D2
100
AcDbEntity
  8
Keep-Out
 62
     0
370
    -2
100
AcDbLine
 10
80.52778422342596
 20
40.61242322466113
 30
0.0
 11
71.6294367684779
 21
40.61242322466114
 31
0.0
  0
LINE
  5
4E2
330
4D2
100
AcDbEntity
  8
Keep-Out
 62
     0
370
    -2
100
AcDbLine
 10
73.4294367684779
 20
52.01242322466114
 30
0.0
 11
73.4294367684779
 21
49.01242322466114
 31
0.0
  0
LINE
  5
4E3
330
4D2
100
AcDbEntity
  8
Keep-Out
 62
     0
370
    -2
100
AcDbLine
 10
73.4294367684779
 20
42.41242322466113
 30
0.0
 11
73.4294367684779
 21
45.41242322466113
 31
0.0
  0
SOLID
  5
4E4
330
4D2
100
AcDbEntity
  8
Keep-Out
 62
     0
100
AcDbTrace
 10
73.1294367684779
 20
52.01242322466114
 30
0.0
 11
73.72943676847789
 21
52.01242322466114
 31
0.0
 12
73.4294367684779
 22
53.81242322466114
 32
0.0
 13
73.4294367684779
 23
53.81242322466114
 33
0.0
  0
SOLID
  5
4E5
330
4D2
100
AcDbEntity
  8
Keep-Out
 62
     0
100
AcDbTrace
 10
73.1294367684779
 20
42.41242322466113
 30
0.0
 11
73.72943676847789
 21
42.41242322466113
 31
0.0
 12
73.4294367684779
 22
40.61242322466114
 32
0.0
 13
73.4294367684779
 23
40.61242322466114
 33
0.0
  0
MTEXT
  5
4E6
330
4D2
100
AcDbEntity
  8
Keep-Out
 62
     0
100
AcDbMText
 10
73.42943676847788
 20
47.21242322466114
 30
0.0
 40
1.799999999999999
 41
0.0
 46
0.0
 71
     5
 72
     1
  1
\A1;13.20
 73
     1
 44
1.0
  0
POINT
  5
4E7
330
4D2
100
AcDbEntity
  8
Defpoints
 62
     0
100
AcDbPoint
 10
81.15278422342596
 20
53.81242322466113
 30
0.0
  0
POINT
  5
4E8
330
4D2
100
AcDbEntity
  8
Defpoints
 62
     0
100
AcDbPoint
 10
81.15278422342596
 20
40.61242322466113
 30
0.0
  0
POINT
  5
4E9
330
4D2
100
AcDbEntity
  8
Defpoints
 62
     0
100
AcDbPoint
 10
73.4294367684779
 20
40.61242322466114
 30
0.0
  0
ENDBLK
  5
4DE
330
4D2
100
AcDbEntity
  8
0
100
AcDbBlockEnd
  0
BLOCK
  5
50D
330
502
100
AcDbEntity
  8
0
100
AcDbBlockBegin
  2
*D32
 70
     1
 10
0.0
 20
0.0
 30
0.0
  3
*D32
  1

  0
LINE
  5
510
330
502
100
AcDbEntity
  8
Keep-Out
 62
     0
370
    -2
100
AcDbLine
 10
230.8473981033793
 20
75.53742322466111
 30
0.0
 11
230.8473981033793
 21
84.01267310575677
 31
0.0
  0
LINE
  5
511
330
502
100
AcDbEntity
  8
Keep-Out
 62
     0
370
    -2
100
AcDbLine
 10
214.3492372436055
 20
72.23742322466112
 30
0.0
 11
214.3492372436055
 21
84.01267310575677
 31
0.0
  0
LINE
  5
512
330
502
100
AcDbEntity
  8
Keep-Out
 62
     0
370
    -2
100
AcDbLine
 10
229.0473981033793
 20
82.21267310575678
 30
0.0
 11
226.6483176734924
 21
82.21267310575678
 31
0.0
  0
LINE
  5
513
330
502
100
AcDbEntity
  8
Keep-Out
 62
     0
370
    -2
100
AcDbLine
 10
216.1492372436056
 20
82.21267310575678
 30
0.0
 11
218.5483176734924
 21
82.21267310575678
 31
0.0
  0
SOLID
  5
514
330
502
100
AcDbEntity
  8
Keep-Out
 62
     0
100
AcDbTrace
 10
229.0473981033793
 20
82.51267310575677
 30
0.0
 11
229.0473981033793
 21
81.91267310575678
 31
0.0
 12
230.8473981033793
 22
82.21267310575678
 32
0.0
 13
230.8473981033793
 23
82.21267310575678
 33
0.0
  0
SOLID
  5
515
330
502
100
AcDbEntity
  8
Keep-Out
 62
     0
100
AcDbTrace
 10
216.1492372436056
 20
82.51267310575677
 30
0.0
 11
216.1492372436056
 21
81.91267310575678
 31
0.0
 12
214.3492372436055
 22
82.21267310575678
 32
0.0
 13
214.3492372436055
 23
82.21267310575678
 33
0.0
  0
MTEXT
  5
516
330
502
100
AcDbEntity
  8
Keep-Out
 62
     0
100
AcDbMText
 10
222.5983176734924
 20
82.21267310575678
 30
0.0
 40
1.799999999999999
 41
0.0
 46
0.0
 71
     5
 72
     1
  1
\A1;16.50
 73
     1
 44
1.0
  0
POINT
  5
517
330
502
100
AcDbEntity
  8
Defpoints
 62
     0
100
AcDbPoint
 10
230.8473981033793
 20
74.91242322466111
 30
0.0
  0
POINT
  5
518
330
502
100
AcDbEntity
  8
Defpoints
 62
     0
100
AcDbPoint
 10
214.3492372436055
 20
71.61242322466112
 30
0.0
  0
POINT
  5
519
330
502
100
AcDbEntity
  8
Defpoints
 62
     0
100
AcDbPoint
 10
214.3492372436055
 20
82.21267310575678
 30
0.0
  0
ENDBLK
  5
50E
330
502
100
AcDbEntity
  8
0
100
AcDbBlockEnd
  0
BLOCK
  5
528
330
51C
100
AcDbEntity
  8
0
100
AcDbBlockBegin
  2
*D33
 70
     1
 10
0.0
 20
0.0
 30
0.0
  3
*D33
  1

  0
LINE
  5
54B
330
51C
100
AcDbEntity
  8
Keep-Out
 62
     0
370
    -2
100
AcDbLine
 10
231.4723981033793
 20
74.91242322466111
 30
0.0
 11
250.0910742488299
 21
74.91242322466111
 31
0.0
  0
LINE
  5
54C
330
51C
100
AcDbEntity
  8
Keep-Out
 62
     0
370
    -2
100
AcDbLine
 10
168.9747881737159
 20
71.61242322466112
 30
0.0
 11
250.0910742488299
 21
71.6124232246611
 31
0.0
  0
LINE
  5
54D
330
51C
100
AcDbEntity
  8
Keep-Out
 62
     0
370
    -2
100
AcDbLine
 10
248.2910742488299
 20
76.71242322466111
 30
0.0
 11
248.2910742488299
 21
78.5124232246611
 31
0.0
  0
LINE
  5
54E
330
51C
100
AcDbEntity
  8
Keep-Out
 62
     0
370
    -2
100
AcDbLine
 10
248.2910742488299
 20
69.8124232246611
 30
0.0
 11
248.2910742488299
 21
68.0124232246611
 31
0.0
  0
LINE
  5
54F
330
51C
100
AcDbEntity
  8
Keep-Out
 62
     0
370
    -2
100
AcDbLine
 10
248.2910742488299
 20
68.0124232246611
 30
0.0
 11
246.4910742488299
 21
68.0124232246611
 31
0.0
  0
SOLID
  5
550
330
51C
100
AcDbEntity
  8
Keep-Out
 62
     0
100
AcDbTrace
 10
247.9910742488299
 20
76.71242322466111
 30
0.0
 11
248.5910742488299
 21
76.71242322466111
 31
0.0
 12
248.2910742488299
 22
74.91242322466111
 32
0.0
 13
248.2910742488299
 23
74.91242322466111
 33
0.0
  0
SOLID
  5
551
330
51C
100
AcDbEntity
  8
Keep-Out
 62
     0
100
AcDbTrace
 10
247.9910742488299
 20
69.8124232246611
 30
0.0
 11
248.5910742488299
 21
69.8124232246611
 31
0.0
 12
248.2910742488299
 22
71.6124232246611
 32
0.0
 13
248.2910742488299
 23
71.6124232246611
 33
0.0
  0
MTEXT
  5
552
330
51C
100
AcDbEntity
  8
Keep-Out
 62
     0
100
AcDbMText
 10
243.0410742488299
 20
68.01242322466115
 30
0.0
 40
1.799999999999999
 41
0.0
 46
0.0
 71
     5
 72
     1
  1
\A1;3.30
 73
     1
 44
1.0
  0
POINT
  5
553
330
51C
100
AcDbEntity
  8
Defpoints
 62
     0
100
AcDbPoint
 10
230.8473981033793
 20
74.91242322466111
 30
0.0
  0
POINT
  5
554
330
51C
100
AcDbEntity
  8
Defpoints
 62
     0
100
AcDbPoint
 10
168.3497881737159
 20
71.61242322466112
 30
0.0
  0
POINT
  5
555
330
51C
100
AcDbEntity
  8
Defpoints
 62
     0
100
AcDbPoint
 10
248.2910742488299
 20
71.6124232246611
 30
0.0
  0
ENDBLK
  5
529
330
51C
100
AcDbEntity
  8
0
100
AcDbBlockEnd
  0
ENDSEC
  0
SECTION
  2
ENTITIES
  0
LINE
  5
498
330
1F
100
AcDbEntity
  8
Keep-Out
100
AcDbLine
 10
214.3497950260288
 20
70.61298131846618
 30
0.0
 11
214.3543713959431
 21
62.41298131846619
 31
0.0
  0
LINE
  5
499
330
1F
100
AcDbEntity
  8
Keep-Out
100
AcDbLine
 10
148.8497851368954
 20
71.61242322466112
 30
0.0
 11
168.3497881737159
 21
71.61242322466112
 31
0.0
  0
LINE
  5
537
102
{ACAD_REACTORS
330
51A
330
536
102
}
330
1F
100
AcDbEntity
  8
Keep-Out
100
AcDbLine
 10
192.849792300677
 20
70.61186513085603
 30
0.0
 11
192.8543686705913
 21
62.41186513085605
 31
0.0
  0
LINE
  5
538
330
1F
100
AcDbEntity
  8
Keep-Out
100
AcDbLine
 10
148.8543615068097
 20
61.41242322466112
 30
0.0
 11
168.3543645436302
 21
61.41242322466112
 31
0.0
  0
LINE
  5
539
102
{ACAD_REACTORS
330
51A
330
536
102
}
330
1F
100
AcDbEntity
  8
Keep-Out
100
AcDbLine
 10
169.3497880179815
 20
70.61298131846619
 30
0.0
 11
169.3543643878958
 21
62.4129813184662
 31
0.0
  0
LINE
  5
53A
330
1F
100
AcDbEntity
  8
Keep-Out
100
AcDbLine
 10
147.8497852926297
 20
70.61186513085603
 30
0.0
 11
147.8543616625441
 21
62.41186513085605
 31
0.0
  0
LINE
  5
53B
330
1F
100
AcDbEntity
  8
Keep-Out
100
AcDbLine
 10
193.8497921449427
 20
71.61242322466112
 30
0.0
 11
213.3497951817632
 21
71.61242322466112
 31
0.0
  0
LINE
  5
53C
330
1F
100
AcDbEntity
  8
Keep-Out
100
AcDbLine
 10
193.854368514857
 20
61.41242322466112
 30
0.0
 11
213.3543715516775
 21
61.41242322466112
 31
0.0
  0
ARC
  5
53D
330
1F
100
AcDbEntity
  8
Keep-Out
100
AcDbCircle
 10
148.8497851368954
 20
70.61242322466111
 30
0.0
 40
1.0
100
AcDbArc
 50
90.0
 51
180.0319764212632
  0
ARC
  5
549
330
1F
100
AcDbEntity
  8
Keep-Out
100
AcDbCircle
 10
148.8543615068097
 20
62.41242322466112
 30
0.0
 40
1.0
100
AcDbArc
 50
180.0319764212632
 51
270.0
  0
ARC
  5
54A
330
1F
100
AcDbEntity
  8
Keep-Out
100
AcDbCircle
 10
168.3497881737159
 20
70.61242322466111
 30
0.0
 40
1.0
100
AcDbArc
 50
0.0319764212631697
 51
90.0
  0
ARC
  5
556
330
1F
100
AcDbEntity
  8
Keep-Out
100
AcDbCircle
 10
168.3543645436302
 20
62.41242322466113
 30
0.0
 40
1.0
100
AcDbArc
 50
270.0
 51
0.0319764212631697
  0
ARC
  5
557
330
1F
100
AcDbEntity
  8
Keep-Out
100
AcDbCircle
 10
193.8497921449427
 20
70.61242322466111
 30
0.0
 40
1.0
100
AcDbArc
 50
90.0
 51
180.0319764212632
  0
ARC
  5
558
330
1F
100
AcDbEntity
  8
Keep-Out
100
AcDbCircle
 10
193.854368514857
 20
62.41242322466112
 30
0.0
 40
1.0
100
AcDbArc
 50
180.0319764212632
 51
270.0
  0
ARC
  5
559
330
1F
100
AcDbEntity
  8
Keep-Out
100
AcDbCircle
 10
213.3543715516775
 20
62.41242322466112
 30
0.0
 40
1.0
100
AcDbArc
 50
270.0
 51
0.0319764212631824
  0
ARC
  5
55A
330
1F
100
AcDbEntity
  8
Keep-Out
100
AcDbCircle
 10
213.3497951817632
 20
70.61242322466111
 30
0.0
 40
1.0
100
AcDbArc
 50
0.031976421263017
 51
90.0
  0
LINE
  5
55B
330
1F
100
AcDbEntity
  8
Keep-Out
100
AcDbLine
 10
200.8746848184437
 20
10.51107665571361
 30
0.0
 11
171.8827728193147
 21
10.51107665571361
 31
0.0
  0
LINE
  5
560
330
1F
100
AcDbEntity
  8
Keep-Out
100
AcDbLine
 10
169.882772507846
 20
12.51107665571361
 30
0.0
 11
137.8816513365617
 21
12.51107665571361
 31
0.0
  0
LINE
  5
561
330
1F
100
AcDbEntity
  8
Keep-Out
100
AcDbLine
 10
170.8827723521116
 20
11.51163474951869
 30
0.0
 11
170.8827729750491
 21
11.51051856190854
 31
0.0
  0
ARC
  5
562
330
1F
100
AcDbEntity
  8
Keep-Out
100
AcDbCircle
 10
169.882772507846
 20
11.51107665571361
 30
0.0
 40
1.0
100
AcDbArc
 50
0.0319764212631697
 51
90.0
  0
ARC
  5
563
330
1F
100
AcDbEntity
  8
Keep-Out
100
AcDbCircle
 10
171.8827728193147
 20
11.51107665571361
 30
0.0
 40
1.0
100
AcDbArc
 50
180.0319764212631
 51
270.0
  0
LINE
  5
564
330
1F
100
AcDbEntity
  8
Keep-Out
100
AcDbLine
 10
153.8841652508258
 20
8.011076655713612
 30
0.0
 11
146.8841641606851
 21
8.011076655713612
 31
0.0
  0
LINE
  5
565
330
1F
100
AcDbEntity
  8
Keep-Out
100
AcDbLine
 10
153.8838862038798
 20
10.51107665571361
 30
0.0
 11
146.8838851137391
 21
10.51107665571361
 31
0.0
  0
LINE
  5
566
330
1F
100
AcDbEntity
  8
Keep-Out
100
AcDbLine
 10
154.8838860481454
 20
9.511634749518689
 30
0.0
 11
154.8841650950914
 21
9.011634749518695
 31
0.0
  0
LINE
  5
567
330
1F
100
AcDbEntity
  8
Keep-Out
100
AcDbLine
 10
145.8838852694735
 20
9.510518561908538
 30
0.0
 11
145.8841643164195
 21
9.010518561908542
 31
0.0
  0
ARC
  5
568
330
1F
100
AcDbEntity
  8
Keep-Out
100
AcDbCircle
 10
146.8838851137391
 20
9.511076655713614
 30
0.0
 40
1.0
100
AcDbArc
 50
90.0
 51
180.0319764212632
  0
ARC
  5
569
330
1F
100
AcDbEntity
  8
Keep-Out
100
AcDbCircle
 10
146.8841641606851
 20
9.011076655713612
 30
0.0
 40
1.0
100
AcDbArc
 50
180.0319764212629
 51
270.0
  0
ARC
  5
56A
330
1F
100
AcDbEntity
  8
Keep-Out
100
AcDbCircle
 10
153.8838862038798
 20
9.511076655713614
 30
0.0
 40
1.0
100
AcDbArc
 50
0.0319764212631697
 51
90.0
  0
ARC
  5
56B
330
1F
100
AcDbEntity
  8
Keep-Out
100
AcDbCircle
 10
153.8841652508258
 20
9.011076655713612
 30
0.0
 40
1.0
100
AcDbArc
 50
270.0
 51
0.0319764212635387
  0
LINE
  5
56C
330
1F
100
AcDbEntity
  8
Keep-Out
100
AcDbLine
 10
136.8763496003222
 20
23.01051856190854
 30
0.0
 11
136.881651492296
 21
13.51051856190854
 31
0.0
  0
LINE
  5
56D
330
1F
100
AcDbEntity
  8
Keep-Out
100
AcDbLine
 10
227.8473981033793
 20
28.5110766557136
 30
0.0
 11
37.982725723499
 21
28.51107665571362
 31
0.0
  0
LINE
  5
56E
330
1F
100
AcDbEntity
  8
Keep-Out
100
AcDbLine
 10
99.98139577436083
 20
14.01163474951869
 30
0.0
 11
99.97637292933292
 21
23.01163474951869
 31
0.0
  0
LINE
  5
56F
330
1F
100
AcDbEntity
  8
Keep-Out
100
AcDbLine
 10
76.98139281540747
 20
14.01051856190854
 30
0.0
 11
76.97636997037957
 21
23.01051856190854
 31
0.0
  0
LINE
  5
570
330
1F
100
AcDbEntity
  8
Keep-Out
100
AcDbLine
 10
98.98139593009517
 20
13.01107665571361
 30
0.0
 11
77.98139265967312
 21
13.01107665571361
 31
0.0
  0
LINE
  5
571
330
1F
100
AcDbEntity
  8
Keep-Out
100
AcDbLine
 10
98.97637308506729
 20
24.01107665571362
 30
0.0
 11
77.9763698146452
 21
24.01107665571361
 31
0.0
  0
ARC
  5
572
330
1F
100
AcDbEntity
  8
Keep-Out
100
AcDbCircle
 10
77.9763698146452
 20
23.01107665571361
 30
0.0
 40
1.0
100
AcDbArc
 50
90.0
 51
180.0319764212632
  0
ARC
  5
573
330
1F
100
AcDbEntity
  8
Keep-Out
100
AcDbCircle
 10
98.97637308506729
 20
23.01107665571362
 30
0.0
 40
1.0
100
AcDbArc
 50
0.0319764212632206
 51
90.0
  0
ARC
  5
574
330
1F
100
AcDbEntity
  8
Keep-Out
100
AcDbCircle
 10
98.98139593009517
 20
14.01107665571361
 30
0.0
 40
1.0
100
AcDbArc
 50
270.0
 51
0.0319764212631697
  0
ARC
  5
575
330
1F
100
AcDbEntity
  8
Keep-Out
100
AcDbCircle
 10
77.98139265967312
 20
14.01107665571361
 30
0.0
 40
1.0
100
AcDbArc
 50
180.0319764212632
 51
270.0
  0
LINE
  5
576
330
1F
100
AcDbEntity
  8
Keep-Out
100
AcDbLine
 10
121.980004277256
 20
15.51107665571361
 30
0.0
 11
111.9800027199122
 21
15.51107665571361
 31
0.0
  0
LINE
  5
577
330
1F
100
AcDbEntity
  8
Keep-Out
100
AcDbLine
 10
121.979167136418
 20
19.01107665571361
 30
0.0
 11
111.9791655790742
 21
19.01107665571361
 31
0.0
  0
LINE
  5
578
330
1F
100
AcDbEntity
  8
Keep-Out
100
AcDbLine
 10
110.9800028756465
 20
16.51051856190853
 30
0.0
 11
110.9791657348086
 21
18.01051856190854
 31
0.0
  0
LINE
  5
579
330
1F
100
AcDbEntity
  8
Keep-Out
100
AcDbLine
 10
122.9800041215217
 20
16.51163474951868
 30
0.0
 11
122.9791669806837
 21
18.01163474951868
 31
0.0
  0
ARC
  5
57A
330
1F
100
AcDbEntity
  8
Keep-Out
100
AcDbCircle
 10
111.9791655790742
 20
18.01107665571361
 30
0.0
 40
1.0
100
AcDbArc
 50
90.0
 51
180.0319764212632
  0
ARC
  5
57B
330
1F
100
AcDbEntity
  8
Keep-Out
100
AcDbCircle
 10
111.9800027199122
 20
16.51107665571361
 30
0.0
 40
1.0
100
AcDbArc
 50
180.0319764212632
 51
270.0
  0
ARC
  5
57C
330
1F
100
AcDbEntity
  8
Keep-Out
100
AcDbCircle
 10
121.980004277256
 20
16.51107665571361
 30
0.0
 40
1.0
100
AcDbArc
 50
270.0
 51
0.0319764212631951
  0
ARC
  5
57D
330
1F
100
AcDbEntity
  8
Keep-Out
100
AcDbCircle
 10
121.979167136418
 20
18.01107665571361
 30
0.0
 40
1.0
100
AcDbArc
 50
0.0319764212631697
 51
90.0
  0
LINE
  5
57E
330
1F
100
AcDbEntity
  8
Keep-Out
100
AcDbLine
 10
37.95861734808815
 20
59.91242322466111
 30
0.0
 11
71.20242621214249
 21
59.9124232246611
 31
0.0
  0
LINE
  5
58C
330
1F
100
AcDbEntity
  8
Keep-Out
100
AcDbLine
 10
72.20242621214248
 20
65.91200480997648
 30
0.0
 11
72.20242621214248
 21
60.9124232246611
 31
0.0
  0
LINE
  5
58D
330
1F
100
AcDbEntity
  8
Keep-Out
100
AcDbLine
 10
75.70242621214248
 20
65.91284195081446
 30
0.0
 11
75.70242621214248
 21
60.91242322466111
 31
0.0
  0
ARC
  5
58E
330
1F
100
AcDbEntity
  8
Keep-Out
100
AcDbCircle
 10
74.70242621214248
 20
65.91284195081446
 30
0.0
 40
1.0
100
AcDbArc
 50
0.0
 51
90.03197642126277
  0
LINE
  5
58F
330
1F
100
AcDbEntity
  8
Keep-Out
100
AcDbLine
 10
74.70186811833741
 20
66.91284179508009
 30
0.0
 11
73.2018681183374
 21
66.91200465424213
 31
0.0
  0
ARC
  5
590
330
1F
100
AcDbEntity
  8
Keep-Out
100
AcDbCircle
 10
73.20242621214248
 20
65.91200480997648
 30
0.0
 40
1.0
100
AcDbArc
 50
90.03197642126277
 51
180.0
  0
LINE
  5
591
330
1F
100
AcDbEntity
  8
Keep-Out
100
AcDbLine
 10
96.70243002763491
 20
65.91200480997648
 30
0.0
 11
96.70243002763491
 21
60.91242322466111
 31
0.0
  0
LINE
  5
592
330
1F
100
AcDbEntity
  8
Keep-Out
100
AcDbLine
 10
100.2024300276349
 20
65.91284195081446
 30
0.0
 11
100.2024300276349
 21
60.91242322466112
 31
0.0
  0
ARC
  5
593
330
1F
100
AcDbEntity
  8
Keep-Out
100
AcDbCircle
 10
99.20243002763491
 20
65.91284195081446
 30
0.0
 40
1.0
100
AcDbArc
 50
0.0
 51
90.03197642126277
  0
LINE
  5
594
330
1F
100
AcDbEntity
  8
Keep-Out
100
AcDbLine
 10
99.20187193382984
 20
66.91284179508009
 30
0.0
 11
97.70187193382982
 21
66.91200465424213
 31
0.0
  0
ARC
  5
595
330
1F
100
AcDbEntity
  8
Keep-Out
100
AcDbCircle
 10
97.70243002763491
 20
65.91200480997648
 30
0.0
 40
1.0
100
AcDbArc
 50
90.03197642126277
 51
180.0
  0
LINE
  5
596
330
1F
100
AcDbEntity
  8
Keep-Out
100
AcDbLine
 10
123.4024341857429
 20
65.91200480997648
 30
0.0
 11
123.4024341857429
 21
60.91242322466111
 31
0.0
  0
LINE
  5
597
330
1F
100
AcDbEntity
  8
Keep-Out
100
AcDbLine
 10
126.9024341857429
 20
65.91284195081446
 30
0.0
 11
126.9024341857429
 21
60.91242322466111
 31
0.0
  0
ARC
  5
598
330
1F
100
AcDbEntity
  8
Keep-Out
100
AcDbCircle
 10
125.9024341857429
 20
65.91284195081446
 30
0.0
 40
1.0
100
AcDbArc
 50
0.0
 51
90.03197642126277
  0
LINE
  5
599
330
1F
100
AcDbEntity
  8
Keep-Out
100
AcDbLine
 10
125.9018760919379
 20
66.91284179508009
 30
0.0
 11
124.4018760919378
 21
66.91200465424213
 31
0.0
  0
ARC
  5
59A
330
1F
100
AcDbEntity
  8
Keep-Out
100
AcDbCircle
 10
124.4024341857429
 20
65.91200480997648
 30
0.0
 40
1.0
100
AcDbArc
 50
90.03197642126277
 51
180.0
  0
LINE
  5
59B
330
1F
100
AcDbEntity
  8
Keep-Out
100
AcDbLine
 10
127.9024341857429
 20
59.91242322466112
 30
0.0
 11
227.8473981033794
 21
59.91242322466111
 31
0.0
  0
LINE
  5
59C
330
1F
100
AcDbEntity
  8
Keep-Out
100
AcDbLine
 10
101.2024300276349
 20
59.91242322466113
 30
0.0
 11
122.4024341857429
 21
59.91242322466111
 31
0.0
  0
LINE
  5
59D
330
1F
100
AcDbEntity
  8
Keep-Out
100
AcDbLine
 10
76.70242621214248
 20
59.91242322466111
 30
0.0
 11
95.7024300276349
 21
59.91242322466111
 31
0.0
  0
ARC
  5
59E
330
1F
100
AcDbEntity
  8
Keep-Out
100
AcDbCircle
 10
71.20242621214249
 20
60.9124232246611
 30
0.0
 40
1.0
100
AcDbArc
 50
270.0
 51
359.9999999999999
  0
ARC
  5
59F
330
1F
100
AcDbEntity
  8
Keep-Out
100
AcDbCircle
 10
76.70242621214248
 20
60.91242322466111
 30
0.0
 40
1.0
100
AcDbArc
 50
179.9999999999999
 51
270.0
  0
ARC
  5
5A0
330
1F
100
AcDbEntity
  8
Keep-Out
100
AcDbCircle
 10
95.7024300276349
 20
60.91242322466111
 30
0.0
 40
1.0
100
AcDbArc
 50
270.0
 51
359.9999999999999
  0
ARC
  5
5A1
330
1F
100
AcDbEntity
  8
Keep-Out
100
AcDbCircle
 10
101.2024300276349
 20
60.91242322466112
 30
0.0
 40
1.0
100
AcDbArc
 50
179.9999999999999
 51
270.0
  0
ARC
  5
5A2
330
1F
100
AcDbEntity
  8
Keep-Out
100
AcDbCircle
 10
122.4024341857429
 20
60.91242322466111
 30
0.0
 40
1.0
100
AcDbArc
 50
270.0
 51
359.9999999999999
  0
ARC
  5
5A3
330
1F
100
AcDbEntity
  8
Keep-Out
100
AcDbCircle
 10
127.9024341857429
 20
60.91242322466111
 30
0.0
 40
1.0
100
AcDbArc
 50
179.9999999999999
 51
270.0
  0
LINE
  5
5A4
330
1F
100
AcDbEntity
  8
Keep-Out
100
AcDbLine
 10
33.31532938326952
 20
75.47760686791487
 30
0.0
 11
10.14607779502829
 21
41.65882133243965
 31
0.0
  0
LINE
  5
5A5
330
1F
100
AcDbEntity
  8
Keep-Out
100
AcDbLine
 10
232.2014825062107
 20
75.91242322466111
 30
0.0
 11
34.14029450337972
 21
75.91242322466112
 31
0.0
  0
LINE
  5
5A6
330
1F
100
AcDbEntity
  8
Keep-Out
100
AcDbLine
 10
33.29591255551957
 20
6.738010104960105
 30
0.0
 11
10.14607779502829
 21
40.52845404593218
 31
0.0
  0
LINE
  5
5A7
102
{ACAD_REACTORS
330
3C9
330
3E4
102
}
330
1F
100
AcDbEntity
  8
Keep-Out
100
AcDbLine
 10
232.3762046185125
 20
6.528227527335496
 30
0.0
 11
34.12201274867835
 21
6.303194392409466
 31
0.0
  0
LINE
  5
5A8
330
1F
100
AcDbEntity
  8
Keep-Out
100
AcDbLine
 10
233.2000346655742
 20
6.963043239886135
 30
0.0
 11
256.1956992145621
 21
40.52845404593222
 31
0.0
  0
LINE
  5
5A9
330
1F
100
AcDbEntity
  8
Keep-Out
100
AcDbLine
 10
233.0264476263209
 20
75.47760686791486
 30
0.0
 11
256.1956992145621
 21
41.6588213324397
 31
0.0
  0
ARC
  5
5AA
330
1F
100
AcDbEntity
  8
Keep-Out
100
AcDbCircle
 10
10.97104291513848
 20
41.09363768918592
 30
0.0
 40
1.0
100
AcDbArc
 50
145.5849552043701
 51
214.4150447956299
  0
ARC
  5
5AB
330
1F
100
AcDbEntity
  8
Keep-Out
100
AcDbCircle
 10
34.12087767562976
 20
7.303193748213845
 30
0.0
 40
1.0
100
AcDbArc
 50
214.4150447956299
 51
270.0650349090881
  0
ARC
  5
5AC
330
1F
100
AcDbEntity
  8
Keep-Out
100
AcDbCircle
 10
232.375069545464
 20
7.528226883139875
 30
0.0
 40
1.0
100
AcDbArc
 50
270.0650349090881
 51
325.58495520437
  0
ARC
  5
5AD
330
1F
100
AcDbEntity
  8
Keep-Out
100
AcDbCircle
 10
255.3707340944519
 20
41.09363768918596
 30
0.0
 40
1.0
100
AcDbArc
 50
325.58495520437
 51
34.41504479562995
  0
ARC
  5
5AE
330
1F
100
AcDbEntity
  8
Keep-Out
100
AcDbCircle
 10
232.2014825062107
 20
74.91242322466111
 30
0.0
 40
1.0
100
AcDbArc
 50
34.41504479562995
 51
90.0
  0
LINE
  5
5B3
330
1F
100
AcDbEntity
  8
Keep-Out
100
AcDbLine
 10
137.8763494445878
 20
24.01107665571361
 30
0.0
 11
173.8763550510256
 21
24.01107665571362
 31
0.0
  0
LINE
  5
5B7
330
1F
100
AcDbEntity
  8
Keep-Out
100
AcDbLine
 10
197.3794279157208
 20
17.51163474951869
 30
0.0
 11
197.3746847405764
 21
26.01051856190854
 31
0.0
  0
LINE
  5
5B8
330
1F
100
AcDbEntity
  8
Keep-Out
100
AcDbLine
 10
198.3746845848421
 20
27.01107665571361
 30
0.0
 11
200.8746849741781
 21
27.01107665571361
 31
0.0
  0
ARC
  5
5B9
330
1F
100
AcDbEntity
  8
Keep-Out
100
AcDbCircle
 10
200.8746849741781
 20
26.01107665571361
 30
0.0
 40
1.0
100
AcDbArc
 50
0.031976421263017
 51
90.0
  0
ARC
  5
5BA
330
1F
100
AcDbEntity
  8
Keep-Out
100
AcDbCircle
 10
198.3746845848421
 20
26.01107665571361
 30
0.0
 40
1.0
100
AcDbArc
 50
90.0
 51
180.0319764212632
  0
LINE
  5
5BB
330
1F
100
AcDbEntity
  8
Keep-Out
100
AcDbLine
 10
175.8794248789003
 20
16.51107665571361
 30
0.0
 11
196.3794280714552
 21
16.51107665571361
 31
0.0
  0
LINE
  5
5BC
330
1F
100
AcDbEntity
  8
Keep-Out
100
AcDbLine
 10
174.8794250346347
 20
17.51051856190853
 30
0.0
 11
174.8763548952913
 21
23.01163474951869
 31
0.0
  0
ARC
  5
5BD
330
1F
100
AcDbEntity
  8
Keep-Out
100
AcDbCircle
 10
137.8763494445878
 20
23.01107665571361
 30
0.0
 40
1.0
100
AcDbArc
 50
90.0
 51
180.0319764212632
  0
ARC
  5
5BE
330
1F
100
AcDbEntity
  8
Keep-Out
100
AcDbCircle
 10
137.8816513365617
 20
13.51107665571361
 30
0.0
 40
1.0
100
AcDbArc
 50
180.0319764212631
 51
270.0
  0
ARC
  5
5BF
330
1F
100
AcDbEntity
  8
Keep-Out
100
AcDbCircle
 10
196.3794280714552
 20
17.51107665571361
 30
0.0
 40
1.0
100
AcDbArc
 50
270.0
 51
0.0319764212631443
  0
ARC
  5
5C0
330
1F
100
AcDbEntity
  8
Keep-Out
100
AcDbCircle
 10
175.8794248789003
 20
17.51107665571361
 30
0.0
 40
1.0
100
AcDbArc
 50
180.0319764212632
 51
270.0
  0
ARC
  5
5C1
330
1F
100
AcDbEntity
  8
Keep-Out
100
AcDbCircle
 10
173.8763550510256
 20
23.01107665571362
 30
0.0
 40
1.0
100
AcDbArc
 50
0.0319764212631697
 51
90.0
  0
LINE
  5
5C4
330
1F
100
AcDbEntity
  8
Keep-Out
100
AcDbLine
 10
201.8746848184437
 20
26.01163474951868
 30
0.0
 11
201.8746848184437
 21
11.51107665571361
 31
0.0
  0
ARC
  5
5C5
330
1F
100
AcDbEntity
  8
Keep-Out
100
AcDbCircle
 10
200.8746848184437
 20
11.51107665571361
 30
0.0
 40
1.0
100
AcDbArc
 50
270.0
 51
0.0
  0
LINE
  5
5C6
330
1F
100
AcDbEntity
  8
Keep-Out
100
AcDbLine
 10
230.8473981033794
 20
56.91242322466111
 30
0.0
 11
230.8473981033793
 21
31.5110766557136
 31
0.0
  0
LINE
  5
5CA
330
1F
100
AcDbEntity
  8
Keep-Out
100
AcDbLine
 10
34.95861869926868
 20
56.90957593097684
 30
0.0
 11
34.98272707467953
 21
31.50822936202935
 31
0.0
  0
ARC
  5
5CD
330
1F
100
AcDbEntity
  8
Keep-Out
100
AcDbCircle
 10
34.14029450337972
 20
74.91242322466113
 30
0.0
 40
1.0
100
AcDbArc
 50
90.0
 51
145.5849552043701
  0
CIRCLE
  5
5CE
330
1F
100
AcDbEntity
  8
Keep-Out
100
AcDbCircle
 10
39.04968588342707
 20
70.81242322466112
 30
0.0
 40
1.800000000000002
  0
CIRCLE
  5
5CF
330
1F
100
AcDbEntity
  8
Keep-Out
100
AcDbCircle
 10
129.1496858834271
 20
70.81242322466112
 30
0.0
 40
1.800000000000002
  0
CIRCLE
  5
5D0
330
1F
100
AcDbEntity
  8
Keep-Out
100
AcDbCircle
 10
226.7496858834271
 20
70.81242322466112
 30
0.0
 40
1.800000000000002
  0
CIRCLE
  5
5D1
330
1F
100
AcDbEntity
  8
Keep-Out
100
AcDbCircle
 10
226.7832280778476
 20
10.71107665571361
 30
0.0
 40
1.800000000000002
  0
CIRCLE
  5
5D2
330
1F
100
AcDbEntity
  8
Keep-Out
100
AcDbCircle
 10
129.1832280778476
 20
10.71107665571361
 30
0.0
 40
1.800000000000002
  0
CIRCLE
  5
5D3
330
1F
100
AcDbEntity
  8
Keep-Out
100
AcDbCircle
 10
39.08322807784756
 20
10.71107665571361
 30
0.0
 40
1.800000000000002
  0
ARC
  5
5D6
330
1F
100
AcDbEntity
  8
Keep-Out
100
AcDbCircle
 10
37.95861734808815
 20
56.91242322466111
 30
0.0
 40
3.0
100
AcDbArc
 50
89.99999999999998
 51
180.0543793118783
  0
ARC
  5
5D8
330
1F
100
AcDbEntity
  8
Keep-Out
100
AcDbCircle
 10
227.8473981033794
 20
56.91242322466111
 30
0.0
 40
3.0
100
AcDbArc
 50
0.0000000000000509
 51
90.0
  0
ARC
  5
5D9
330
1F
100
AcDbEntity
  8
Keep-Out
100
AcDbCircle
 10
227.8473981033793
 20
31.51107665571361
 30
0.0
 40
3.0
100
AcDbArc
 50
270.0
 51
360.0
  0
ARC
  5
5DA
330
1F
100
AcDbEntity
  8
Keep-Out
100
AcDbCircle
 10
37.982725723499
 20
31.51107665571363
 30
0.0
 40
3.0
100
AcDbArc
 50
180.0543793118784
 51
270.0
  0
ENDSEC
  0
SECTION
  2
OBJECTS
  0
DICTIONARY
  5
C
330
0
100
AcDbDictionary
281
     1
  3
ACAD_COLOR
350
73
  3
ACAD_GROUP
350
D
  3
ACAD_LAYOUT
350
1A
  3
ACAD_MATERIAL
350
72
  3
ACAD_MLINESTYLE
350
17
  3
ACAD_PLOTSETTINGS
350
19
  3
ACAD_PLOTSTYLENAME
350
E
  3
ACAD_TABLESTYLE
350
86
  3
ACAD_VISUALSTYLE
350
99
  3
AcDbVariableDictionary
350
66
  0
DICTIONARY
  5
484
330
2
100
AcDbDictionary
280
     1
281
     1
  3
ACAD_LAYERFILTERS
360
5D5
  3
ACLYDICTIONARY
360
5D4
  0
DICTIONARY
  5
C2
330
1F
100
AcDbDictionary
280
     1
281
     1
  3
ACAD_SORTENTS
360
C3
  0
DICTIONARY
  5
73
102
{ACAD_REACTORS
330
C
102
}
330
C
100
AcDbDictionary
281
     1
  0
DICTIONARY
  5
D
102
{ACAD_REACTORS
330
C
102
}
330
C
100
AcDbDictionary
281
     1
  0
DICTIONARY
  5
1A
102
{ACAD_REACTORS
330
C
102
}
330
C
100
AcDbDictionary
281
     1
  3
Layout1
350
59
  3
Layout2
350
5E
  3
Model
350
22
  0
DICTIONARY
  5
72
102
{ACAD_REACTORS
330
C
102
}
330
C
100
AcDbDictionary
281
     1
  3
ByBlock
350
97
  3
ByLayer
350
96
  3
Global
350
98
  0
DICTIONARY
  5
17
102
{ACAD_REACTORS
330
C
102
}
330
C
100
AcDbDictionary
281
     1
  3
Standard
350
18
  0
DICTIONARY
  5
19
102
{ACAD_REACTORS
330
C
102
}
330
C
100
AcDbDictionary
281
     1
  0
ACDBDICTIONARYWDFLT
  5
E
102
{ACAD_REACTORS
330
C
102
}
330
C
100
AcDbDictionary
281
     1
  3
Normal
350
F
100
AcDbDictionaryWithDefault
340
F
  0
DICTIONARY
  5
86
102
{ACAD_REACTORS
330
C
102
}
330
C
100
AcDbDictionary
281
     1
  3
Standard
350
87
  0
DICTIONARY
  5
99
102
{ACAD_REACTORS
330
C
102
}
330
C
100
AcDbDictionary
281
     1
  3
2dWireframe
350
9F
  3
3D Hidden
350
A1
  3
3dWireframe
350
A0
  3
Basic
350
9E
  3
Brighten
350
A5
  3
ColorChange
350
A9
  3
Conceptual
350
A2
  3
Dim
350
A4
  3
Facepattern
350
A8
  3
Flat
350
9A
  3
FlatWithEdges
350
9B
  3
Gouraud
350
9C
  3
GouraudWithEdges
350
9D
  3
Linepattern
350
A7
  3
Realistic
350
A3
  3
Thicken
350
A6
  0
DICTIONARY
  5
66
102
{ACAD_REACTORS
330
C
102
}
330
C
100
AcDbDictionary
281
     1
  3
CTABLESTYLE
350
89
  3
DIMASSOC
350
67
  3
HIDETEXT
350
6B
  0
DICTIONARY
  5
5D5
102
{ACAD_REACTORS
330
484
102
}
330
484
100
AcDbDictionary
281
     1
  0
DICTIONARY
  5
5D4
102
{ACAD_REACTORS
330
484
102
}
330
484
100
AcDbDictionary
281
     1
1001
ACAD
1000
<All
  0
SORTENTSTABLE
  5
C3
102
{ACAD_REACTORS
330
C2
102
}
330
C2
100
AcDbSortentsTable
330
1F
331
5DA
  5
5D1
331
5C0
  5
5C0
331
5D1
  5
5D8
331
58D
  5
5AC
331
56B
  5
58B
331
57C
  5
57D
331
59E
  5
54A
331
5D8
  5
5CC
331
569
  5
58E
331
5CF
  5
5D3
331
5AD
  5
49A
331
57A
  5
59B
331
5BE
  5
590
331
59C
  5
55B
331
567
  5
56B
331
5CD
  5
48D
331
5BC
  5
5C4
331
59A
  5
5BA
331
578
  5
59A
331
53C
  5
563
331
5AB
  5
138
331
565
  5
587
331
498
  5
579
331
5A9
  5
495
331
53A
  5
5A0
331
5BA
  5
5C8
331
598
  5
5B8
331
576
  5
57C
331
549
  5
562
331
563
  5
593
331
5B8
  5
5C9
331
596
  5
5B6
331
574
  5
582
331
55A
  5
568
331
538
  5
560
331
5A7
  5
12D
331
561
  5
570
331
594
  5
5B3
331
572
  5
59D
331
558
  5
564
331
5A5
  5
34C
331
5C5
  5
592
331
5A3
  5
55F
331
5D6
  5
5D2
331
592
  5
5B1
331
570
  5
580
331
556
  5
561
331
5A1
  5
55D
331
590
  5
5AF
331
56E
  5
59E
331
5C1
  5
5C5
331
5D2
  5
5D9
331
58E
  5
5AD
331
57D
  5
599
331
56C
  5
569
331
59F
  5
55A
331
5D9
  5
584
331
58C
  5
5AB
331
56A
  5
56E
331
5D0
  5
5D6
331
5AE
  5
497
331
57B
  5
57E
331
59D
  5
556
331
5BF
  5
5C2
331
568
  5
56C
331
5AC
  5
500
331
5CE
  5
405
331
53D
  5
5AA
331
579
  5
598
331
5BD
  5
56A
331
59B
  5
55E
331
566
  5
56D
331
499
  5
565
331
5AA
  5
491
331
5BB
  5
5BF
331
599
  5
5B9
331
577
  5
57B
331
53B
  5
567
331
54A
  5
575
331
564
  5
58A
331
5CA
  5
5D0
331
5A8
  5
499
331
55B
  5
591
331
539
  5
574
331
597
  5
5B7
331
575
  5
581
331
5B9
  5
573
331
562
  5
572
331
5A6
  5
48F
331
5B7
  5
5C7
331
595
  5
5B4
331
573
  5
59F
331
559
  5
57A
331
537
  5
576
331
560
  5
58F
331
5C6
  5
5CB
331
5A4
  5
48C
331
593
  5
5B2
331
571
  5
57F
331
557
  5
577
331
5A2
  5
55C
331
5C4
  5
5CA
331
5B3
  5
5C3
331
591
  5
5B0
331
56F
  5
59C
331
5A0
  5
559
331
5D3
  5
5DA
331
58F
  5
5AE
331
56D
  5
583
331
57E
  5
53D
  0
LAYOUT
  5
59
102
{ACAD_REACTORS
330
1A
102
}
330
1A
100
AcDbPlotSettings
  1

  2
None
  4

  6

 40
0.0
 41
0.0
 42
0.0
 43
0.0
 44
0.0
 45
0.0
 46
0.0
 47
0.0
 48
0.0
 49
0.0
140
0.0
141
0.0
142
1.0
143
1.0
 70
   688
 72
     0
 73
     0
 74
     5
  7

 75
    16
147
1.0
 76
     0
 77
     2
 78
   300
148
0.0
149
0.0
100
AcDbLayout
  1
Layout1
 70
     1
 71
     1
 10
0.0
 20
0.0
 11
12.0
 21
9.0
 12
0.0
 22
0.0
 32
0.0
 14
0.0
 24
0.0
 34
0.0
 15
0.0
 25
0.0
 35
0.0
146
0.0
 13
0.0
 23
0.0
 33
0.0
 16
1.0
 26
0.0
 36
0.0
 17
0.0
 27
1.0
 37
0.0
 76
     0
330
58
  0
LAYOUT
  5
5E
102
{ACAD_REACTORS
330
1A
102
}
330
1A
100
AcDbPlotSettings
  1

  2
None
  4

  6

 40
0.0
 41
0.0
 42
0.0
 43
0.0
 44
0.0
 45
0.0
 46
0.0
 47
0.0
 48
0.0
 49
0.0
140
0.0
141
0.0
142
1.0
143
1.0
 70
   688
 72
     0
 73
     0
 74
     5
  7

 75
    16
147
1.0
 76
     0
 77
     2
 78
   300
148
0.0
149
0.0
100
AcDbLayout
  1
Layout2
 70
     1
 71
     2
 10
0.0
 20
0.0
 11
12.0
 21
9.0
 12
0.0
 22
0.0
 32
0.0
 14
0.0
 24
0.0
 34
0.0
 15
0.0
 25
0.0
 35
0.0
146
0.0
 13
0.0
 23
0.0
 33
0.0
 16
1.0
 26
0.0
 36
0.0
 17
0.0
 27
1.0
 37
0.0
 76
     0
330
5D
  0
LAYOUT
  5
22
102
{ACAD_REACTORS
330
1A
102
}
330
1A
100
AcDbPlotSettings
  1

  2
none_device
  4
ANSI_A_(8.50_x_11.00_Inches)
  6

 40
6.349999904632568
 41
19.04999923706055
 42
6.350006103515625
 43
19.04998779296875
 44
215.8999938964844
 45
279.3999938964844
 46
0.0
 47
0.0
 48
0.0
 49
0.0
140
0.0
141
0.0
142
1.0
143
2.584895464708373
 70
 11952
 72
     0
 73
     1
 74
     0
  7

 75
     0
147
0.3868628397755418
 76
     0
 77
     2
 78
   300
148
0.0
149
0.0
100
AcDbLayout
  1
Model
 70
     1
 71
     0
 10
0.0
 20
0.0
 11
12.0
 21
9.0
 12
0.0
 22
0.0
 32
0.0
 14
0.0
 24
0.0
 34
0.0
 15
0.0
 25
0.0
 35
0.0
146
0.0
 13
0.0
 23
0.0
 33
0.0
 16
1.0
 26
0.0
 36
0.0
 17
0.0
 27
1.0
 37
0.0
 76
     0
330
1F
331
94
  0
MATERIAL
  5
97
102
{ACAD_REACTORS
330
72
102
}
330
72
100
AcDbMaterial
  1
ByBlock
  0
MATERIAL
  5
96
102
{ACAD_REACTORS
330
72
102
}
330
72
100
AcDbMaterial
  1
ByLayer
  0
MATERIAL
  5
98
102
{ACAD_REACTORS
330
72
102
}
330
72
100
AcDbMaterial
  1
Global
  0
MLINESTYLE
  5
18
102
{ACAD_REACTORS
330
17
102
}
330
17
100
AcDbMlineStyle
  2
STANDARD
 70
     0
  3

 62
   256
 51
90.0
 52
90.0
 71
     2
 49
0.5
 62
   256
  6
BYLAYER
 49
-0.5
 62
   256
  6
BYLAYER
  0
ACDBPLACEHOLDER
  5
F
102
{ACAD_REACTORS
330
E
102
}
330
E
  0
TABLESTYLE
  5
87
102
{ACAD_REACTORS
330
86
102
}
330
86
100
AcDbTableStyle
  3
Standard
 70
     0
 71
     0
 40
0.06
 41
0.06
280
     0
281
     0
  7
Standard
140
0.18
170
     2
 62
     0
 63
     7
283
     0
 90
      512
 91
        0
  1

274
    -2
284
     1
 64
     0
275
    -2
285
     1
 65
     0
276
    -2
286
     1
 66
     0
277
    -2
287
     1
 67
     0
278
    -2
288
     1
 68
     0
279
    -2
289
     1
 69
     0
  7
Standard
140
0.25
170
     5
 62
     0
 63
     7
283
     0
 90
      512
 91
        0
  1

274
    -2
284
     1
 64
     0
275
    -2
285
     1
 65
     0
276
    -2
286
     1
 66
     0
277
    -2
287
     1
 67
     0
278
    -2
288
     1
 68
     0
279
    -2
289
     1
 69
     0
  7
Standard
140
0.18
170
     5
 62
     0
 63
     7
283
     0
 90
      512
 91
        0
  1

274
    -2
284
     1
 64
     0
275
    -2
285
     1
 65
     0
276
    -2
286
     1
 66
     0
277
    -2
287
     1
 67
     0
278
    -2
288
     1
 68
     0
279
    -2
289
     1
 69
     0
  0
VISUALSTYLE
  5
9F
102
{ACAD_REACTORS
330
99
102
}
330
99
100
AcDbVisualStyle
  2
2dWireframe
 70
     4
 71
     0
 72
     2
 73
     1
 90
        0
 40
-0.6
 41
-30.0
 62
     5
 63
     7
421
 16777215
 74
     1
 91
        4
 64
     7
 65
   257
 75
     1
175
     1
 42
1.0
 92
        0
 66
   257
 43
1.0
 76
     1
 77
     6
 78
     2
 67
     7
 79
     5
170
     0
171
     0
290
     0
174
     0
 93
        1
 44
0.0
173
     0
291
     0
 45
0.0
  0
VISUALSTYLE
  5
A1
102
{ACAD_REACTORS
330
99
102
}
330
99
100
AcDbVisualStyle
  2
3D Hidden
 70
     6
 71
     1
 72
     2
 73
     2
 90
        0
 40
-0.6
 41
-30.0
 62
     5
 63
     7
421
 16777215
 74
     2
 91
        2
 64
     7
 65
   257
 75
     2
175
     1
 42
40.0
 92
        0
 66
   257
 43
1.0
 76
     1
 77
     6
 78
     2
 67
     7
 79
     3
170
     0
171
     0
290
     0
174
     0
 93
        1
 44
0.0
173
     0
291
     0
 45
0.0
  0
VISUALSTYLE
  5
A0
102
{ACAD_REACTORS
330
99
102
}
330
99
100
AcDbVisualStyle
  2
3dWireframe
 70
     5
 71
     0
 72
     2
 73
     1
 90
        0
 40
-0.6
 41
-30.0
 62
     5
 63
     7
421
 16777215
 74
     1
 91
        4
 64
     7
 65
   257
 75
     1
175
     1
 42
1.0
 92
        0
 66
   257
 43
1.0
 76
     1
 77
     6
 78
     2
 67
     7
 79
     5
170
     0
171
     0
290
     0
174
     0
 93
        1
 44
0.0
173
     0
291
     0
 45
0.0
  0
VISUALSTYLE
  5
9E
102
{ACAD_REACTORS
330
99
102
}
330
99
100
AcDbVisualStyle
  2
Basic
 70
     7
 71
     1
 72
     0
 73
     1
 90
        0
 40
-0.6
 41
-30.0
 62
     5
 63
     7
421
 16777215
 74
     0
 91
        4
 64
     7
 65
   257
 75
     1
175
     1
 42
1.0
 92
        8
 66
     7
 43
1.0
 76
     1
 77
     6
 78
     2
 67
     7
 79
     5
170
     0
171
     0
290
     0
174
     0
 93
        1
 44
0.0
173
     0
291
     1
 45
0.0
  0
VISUALSTYLE
  5
A5
102
{ACAD_REACTORS
330
99
102
}
330
99
100
AcDbVisualStyle
  2
Brighten
 70
    12
 71
     2
 72
     2
 73
     1
 90
        0
 40
-0.6
 41
-30.0
 62
     5
 63
     7
421
 16777215
 74
     1
 91
        4
 64
     7
 65
   257
 75
     1
175
     1
 42
1.0
 92
        8
 66
     7
 43
1.0
 76
     1
 77
     6
 78
     2
 67
     7
 79
     5
170
     0
171
     0
290
     0
174
     0
 93
        1
 44
50.0
173
     0
291
     1
 45
0.0
  0
VISUALSTYLE
  5
A9
102
{ACAD_REACTORS
330
99
102
}
330
99
100
AcDbVisualStyle
  2
ColorChange
 70
    16
 71
     2
 72
     2
 73
     3
 90
        0
 40
-0.6
 41
-30.0
 62
     5
 63
     8
421
  8421504
 74
     1
 91
        4
 64
     7
 65
   257
 75
     1
175
     1
 42
1.0
 92
        8
 66
     8
424
  8421504
 43
1.0
 76
     1
 77
     6
 78
     2
 67
     7
 79
     5
170
     0
171
     0
290
     0
174
     0
 93
        1
 44
0.0
173
     0
291
     1
 45
0.0
  0
VISUALSTYLE
  5
A2
102
{ACAD_REACTORS
330
99
102
}
330
99
100
AcDbVisualStyle
  2
Conceptual
 70
     9
 71
     3
 72
     2
 73
     1
 90
        0
 40
-0.6
 41
-30.0
 62
     5
 63
     7
421
 16777215
 74
     2
 91
        2
 64
     7
 65
   257
 75
     1
175
     1
 42
40.0
 92
        8
 66
     7
 43
1.0
 76
     1
 77
     6
 78
     2
 67
     7
 79
     3
170
     0
171
     0
290
     0
174
     0
 93
        1
 44
0.0
173
     0
291
     0
 45
0.0
  0
VISUALSTYLE
  5
A4
102
{ACAD_REACTORS
330
99
102
}
330
99
100
AcDbVisualStyle
  2
Dim
 70
    11
 71
     2
 72
     2
 73
     1
 90
        0
 40
-0.6
 41
-30.0
 62
     5
 63
     7
421
 16777215
 74
     1
 91
        4
 64
     7
 65
   257
 75
     1
175
     1
 42
1.0
 92
        8
 66
     7
 43
1.0
 76
     1
 77
     6
 78
     2
 67
     7
 79
     5
170
     0
171
     0
290
     0
174
     0
 93
        1
 44
-50.0
173
     0
291
     1
 45
0.0
  0
VISUALSTYLE
  5
A8
102
{ACAD_REACTORS
330
99
102
}
330
99
100
AcDbVisualStyle
  2
Facepattern
 70
    15
 71
     2
 72
     2
 73
     1
 90
        0
 40
-0.6
 41
-30.0
 62
     5
 63
     7
421
 16777215
 74
     1
 91
        4
 64
     7
 65
   257
 75
     1
175
     1
 42
1.0
 92
        8
 66
     7
 43
1.0
 76
     1
 77
     6
 78
     2
 67
     7
 79
     5
170
     0
171
     0
290
     0
174
     0
 93
        1
 44
0.0
173
     0
291
     1
 45
0.0
  0
VISUALSTYLE
  5
9A
102
{ACAD_REACTORS
330
99
102
}
330
99
100
AcDbVisualStyle
  2
Flat
 70
     0
 71
     2
 72
     1
 73
     1
 90
        2
 40
-0.6
 41
30.0
 62
     5
 63
     7
421
 16777215
 74
     0
 91
        4
 64
     7
 65
   257
 75
     1
175
     1
 42
1.0
 92
        8
 66
     7
 43
1.0
 76
     1
 77
     6
 78
     2
 67
     7
 79
     5
170
     0
171
     0
290
     0
174
     0
 93
        1
 44
0.0
173
     0
291
     1
 45
0.0
  0
VISUALSTYLE
  5
9B
102
{ACAD_REACTORS
330
99
102
}
330
99
100
AcDbVisualStyle
  2
FlatWithEdges
 70
     1
 71
     2
 72
     1
 73
     1
 90
        2
 40
-0.6
 41
30.0
 62
     5
 63
     7
421
 16777215
 74
     1
 91
        4
 64
     7
 65
   257
 75
     1
175
     1
 42
1.0
 92
        0
 66
   257
 43
1.0
 76
     1
 77
     6
 78
     2
 67
     7
 79
     5
170
     0
171
     0
290
     0
174
     0
 93
        1
 44
0.0
173
     0
291
     1
 45
0.0
  0
VISUALSTYLE
  5
9C
102
{ACAD_REACTORS
330
99
102
}
330
99
100
AcDbVisualStyle
  2
Gouraud
 70
     2
 71
     2
 72
     2
 73
     1
 90
        2
 40
-0.6
 41
30.0
 62
     5
 63
     7
421
 16777215
 74
     0
 91
        4
 64
     7
 65
   257
 75
     1
175
     1
 42
1.0
 92
        0
 66
     7
 43
1.0
 76
     1
 77
     6
 78
     2
 67
     7
 79
     5
170
     0
171
     0
290
     0
174
     0
 93
        1
 44
0.0
173
     0
291
     1
 45
0.0
  0
VISUALSTYLE
  5
9D
102
{ACAD_REACTORS
330
99
102
}
330
99
100
AcDbVisualStyle
  2
GouraudWithEdges
 70
     3
 71
     2
 72
     2
 73
     1
 90
        2
 40
-0.6
 41
30.0
 62
     5
 63
     7
421
 16777215
 74
     1
 91
        4
 64
     7
 65
   257
 75
     1
175
     1
 42
1.0
 92
        0
 66
   257
 43
1.0
 76
     1
 77
     6
 78
     2
 67
     7
 79
     5
170
     0
171
     0
290
     0
174
     0
 93
        1
 44
0.0
173
     0
291
     1
 45
0.0
  0
VISUALSTYLE
  5
A7
102
{ACAD_REACTORS
330
99
102
}
330
99
100
AcDbVisualStyle
  2
Linepattern
 70
    14
 71
     2
 72
     2
 73
     1
 90
        0
 40
-0.6
 41
-30.0
 62
     5
 63
     7
421
 16777215
 74
     1
 91
        4
 64
     7
 65
   257
 75
     7
175
     7
 42
1.0
 92
        8
 66
     7
 43
1.0
 76
     1
 77
     6
 78
     2
 67
     7
 79
     5
170
     0
171
     0
290
     0
174
     0
 93
        1
 44
0.0
173
     0
291
     1
 45
0.0
  0
VISUALSTYLE
  5
A3
102
{ACAD_REACTORS
330
99
102
}
330
99
100
AcDbVisualStyle
  2
Realistic
 70
     8
 71
     2
 72
     2
 73
     1
 90
        0
 40
-0.6
 41
-30.0
 62
     5
 63
     7
421
 16777215
 74
     1
 91
        0
 64
     7
 65
   257
 75
     1
175
     1
 42
1.0
 92
        8
 66
     8
424
  7895160
 43
1.0
 76
     1
 77
     6
 78
     2
 67
     7
 79
     5
170
     0
171
     0
290
     0
174
     0
 93
       13
 44
0.0
173
     0
291
     0
 45
0.0
  0
VISUALSTYLE
  5
A6
102
{ACAD_REACTORS
330
99
102
}
330
99
100
AcDbVisualStyle
  2
Thicken
 70
    13
 71
     2
 72
     2
 73
     1
 90
        0
 40
-0.6
 41
-30.0
 62
     5
 63
     7
421
 16777215
 74
     1
 91
        4
 64
     7
 65
   257
 75
     1
175
     1
 42
1.0
 92
       12
 66
     7
 43
1.0
 76
     1
 77
     6
 78
     2
 67
     7
 79
     5
170
     0
171
     0
290
     0
174
     0
 93
        1
 44
0.0
173
     0
291
     1
 45
0.0
  0
DICTIONARYVAR
  5
89
102
{ACAD_REACTORS
330
66
102
}
330
66
100
DictionaryVariables
280
     0
  1
STANDARD
  0
DICTIONARYVAR
  5
67
102
{ACAD_REACTORS
330
66
102
}
330
66
100
DictionaryVariables
280
     0
  1
2
  0
DICTIONARYVAR
  5
6B
102
{ACAD_REACTORS
330
66
102
}
330
66
100
DictionaryVariables
280
     0
  1
1
  0
ENDSEC
  0
EOF
