0
SECTION
2
ENTITIES
0
ARC
8
0
10
0
20
0.6532
40
0.347
50
337.51477804415
51
21.412065380434
0
ARC
8
0
10
0.4619
20
0.4619
40
0.347
50
-246.41979019797
51
-202.50047774553
0
ARC
8
0
10
0
20
0.6532
40
0.153
50
-157.52414465046
51
337.50982197289
0
ARC
8
0
10
-0.4619
20
0.4619
40
0.347
50
22.506798035462
51
66.404657677159
0
ARC
8
0
10
0
20
0.6532
40
0.347
50
-201.41809405134
51
-157.49952225447
0
ARC
8
0
10
-0.4619
20
0.4619
40
0.153
50
-112.52478504317
51
22.490178027113
0
ARC
8
0
10
-0.6532
20
0
40
0.347
50
67.514778044149
51
-248.58793461957
0
ARC
8
0
10
-0.4619
20
0.4619
40
0.347
50
-156.41979019797
51
-112.50047774553
0
ARC
8
0
10
-0.6532
20
0
40
0.153
50
292.47585534954
51
67.509821972887
0
ARC
8
0
10
-0.4619
20
-0.4619
40
0.347
50
-247.49320196454
51
-203.59534232284
0
ARC
8
0
10
-0.6532
20
0
40
0.347
50
-111.41809405134
51
292.50047774553
0
ARC
8
0
10
-0.4619
20
-0.4619
40
0.153
50
337.47521495683
51
-247.50982197289
0
ARC
8
0
10
-0
20
-0.6532
40
0.347
50
-202.48522195585
51
-158.58793461957
0
ARC
8
0
10
-0.4619
20
-0.4619
40
0.347
50
293.58020980203
51
337.49952225447
0
ARC
8
0
10
-0
20
-0.6532
40
0.153
50
22.475855349539
51
-202.49017802711
0
ARC
8
0
10
0.4619
20
-0.4619
40
0.347
50
-157.49320196454
51
-113.59534232284
0
ARC
8
0
10
-0
20
-0.6532
40
0.347
50
338.58190594866
51
22.500477745533
0
ARC
8
0
10
0.4619
20
-0.4619
40
0.153
50
67.475214956834
51
-157.50982197289
0
ARC
8
0
10
0.6532
20
-0
40
0.347
50
-112.48522195585
51
291.41206538043
0
ARC
8
0
10
0.4619
20
-0.4619
40
0.347
50
23.580209802026
51
67.499522254467
0
ARC
8
0
10
0.6532
20
-0
40
0.153
50
-247.52414465046
51
-112.49017802711
0
ARC
8
0
10
0.4619
20
0.4619
40
0.347
50
292.50679803546
51
336.40465767716
0
ARC
8
0
10
0.6532
20
-0
40
0.347
50
68.581905948661
51
-247.49952225447
0
ARC
8
0
10
0.4619
20
0.4619
40
0.153
50
-202.52478504317
51
292.49017802711
0
ENDSEC
0
EOF
 