0
SECTION
2
HEADER
9
$ACADVER
1
AC1009
9
$CLAYER
8
0
0
ENDSEC
0
SECTION
2
TABLES
0
TABLE
2
LTYPE
70
8
0
LTYPE
2
CONTINUOUS
70
0
3
Solid line
72
65
73
0
40
0.0
0
LTYPE
2
DASHED
70
0
3
__ __ __ __ __ __ __ __ __ __ __ __ __ __ __ __
72
65
73
2
40
0.75
49
0.5
49
-0.25
0
LTYPE
2
CENTER2
70
0
3
____ _ ____ _ ____ _ ____ _ ____ _ ____ _ ____ 
72
65
73
4
40
2.0
49
1.25
49
-0.25
49
0.25
49
-0.25
0
ENDTAB
0
TABLE
2
LAYER
70
24
0
LAYER
2
PNTS
70
0
62
1
6
CONTINUOUS
0
LAYER
2
PNTNO
70
0
62
7
6
CONTINUOUS
0
LAYER
2
PNTELEV
70
0
62
5
6
CONTINUOUS
0
LAYER
2
PNTDESC
70
0
62
3
6
CONTINUOUS
0
LAYER
2
0
70
0
62
7
6
CONTINUOUS
0
LAYER
2
DISTXT
70
0
62
7
6
CONTINUOUS
0
LAYER
2
EXISTING
70
0
62
2
6
DASHED
0
LAYER
2
FINAL
70
0
62
1
6
CONTINUOUS
0
LAYER
2
PNTMARK
70
0
62
1
6
CONTINUOUS
0
LAYER
2
PNTS_PNTELEV
70
0
62
5
6
CONTINUOUS
0
LAYER
2
PNTELEV_TEXT
70
0
62
5
6
CONTINUOUS
0
LAYER
2
PNTS_PNTNO
70
0
62
1
6
CONTINUOUS
0
LAYER
2
PNTNO_TEXT
70
0
62
1
6
CONTINUOUS
0
LAYER
2
PNTDESC_TEXT
70
0
62
3
6
CONTINUOUS
0
LAYER
2
PNTS_PNTDESC
70
0
62
3
6
CONTINUOUS
0
ENDTAB
0
TABLE
2
STYLE
70
8
0
STYLE
2
STANDARD
70
0
40
0.0000000000000000
41
1.0000000000000000
50
0.0000000000000000
71
0
42
4.0000000000000000
3
txt
4

0
STYLE
2
PTXT
70
0
40
0.0000000000000000
41
1.0000000000000000
50
0.0000000000000000
71
0
42
1.0000000000000000
3
TXT
4

0
STYLE
2
MONO
70
0
40
0.0000000000000000
41
1.0000000000000000
50
0.0000000000000000
71
0
42
4.0000000000000000
3
MONOTXT.SHX
4

0
ENDTAB
0
TABLE
2
APPID
70
8
0
APPID
2
CRDUTIL
70
0
0
APPID
2
SPT
70
0
0
APPID
2
PNTNO
70
0
0
APPID
2
CGISCE_GIS_2000
70
0
0
APPID
2
CGISCE_F2F_2000
70
0
0
APPID
2
CGISCE_F2FC_2000
70
0
0
APPID
2
CGISCE_IMG_2000
70
0
0
ENDTAB
0
ENDSEC
0
SECTION
2
BLOCKS
0
BLOCK
8
0
2
$MODEL_SPACE
70
0
10
0.0
20
0.0
30
0.0
3
$MODEL_SPACE
1

0
ENDBLK
8
0
0
BLOCK
67
1
8
0
2
$PAPER_SPACE
70
0
10
0.0
20
0.0
30
0.0
3
$PAPER_SPACE
1

0
ENDBLK
67
1
8
0
0
BLOCK
8
0
2
SRVPNO2
70
2
10
0.0
20
0.0
30
0.0
3
SRVPNO2
1

0
ATTDEF
8
PNTNO
10
1.5
20
0.75
30
0.0
40
1.0
1

7
PTXT
3
POINT NUMBER
2
PT#
70
0
0
ATTDEF
8
PNTELEV
10
1.5
20
-0.5
30
0.0
40
1.0
1

7
PTXT
3
ELEVATION:
2
ELEV2
70
0
0
ATTDEF
8
PNTDESC
10
1.5
20
-1.75
30
0.0
40
1.0
1

7
PTXT
3
DESCRIPTION:
2
DESC2
70
0
0
ENDBLK
8
0
0
BLOCK
8
0
2
SRVPNO3
70
2
10
0.0
20
0.0
30
0.0
3
SRVPNO3
1

0
ATTDEF
8
PNTNO
10
0.0
20
0.75
30
0.0
40
1.0
1

7
PTXT
72
1
11
0.0
21
0.75
31
0.0
3
POINT NUMBER
2
PT#
70
0
0
ATTDEF
8
PNTELEV
10
1.5
20
-0.5
30
0.0
40
1.0
1

7
PTXT
50
45.0
3
ELEVATION:
2
ELEV2
70
0
0
ATTDEF
8
PNTDESC
10
0.0
20
-1.75
30
0.0
40
1.0
1

7
PTXT
72
1
11
0.0
21
-1.75
31
0.0
3
DESCRIPTION:
2
DESC2
70
0
0
ENDBLK
8
0
0
BLOCK
8
0
2
SPT0
70
0
10
0.0
20
0.0
30
0.0
3
SPT0
1

0
ENDBLK
8
0
0
ENDSEC
0
SECTION
2
ENTITIES
0
INSERT
8
PNTS
2
SPT0
10
610258.7250000026500000
20
7529157.7310000015000000
30
806.4900000000000100
41
0.1500000000000000
42
0.1500000000000000
43
0.1500000000000000
1001
SPT
1070
1
1001
PNTNO
1000
1
1070
1
0
INSERT
8
PNTS
66
1
2
SRVPNO3
10
610258.7250000026500000
20
7529157.7310000015000000
30
806.4900000000000100
41
0.1500000000000000
42
0.1500000000000000
43
0.1500000000000000
1001
PNTNO
1000
1
1070
1
0
ATTRIB
8
PNTNO
10
610258.7250000026500000
20
7529157.8435000014000000
30
806.4900000000000100
40
0.1500000000000000
1
1
7
PTXT
72
1
11
610258.7250000026500000
21
7529157.8435000014000000
31
806.4900000000000100
2
PT#
70
0
0
ATTRIB
8
PNTELEV
10
610258.9500000026300000
20
7529157.6560000014000000
30
806.4900000000000100
40
0.1500000000000000
1
806.49
50
45.0000000000000000
7
PTXT
2
ELEV2
70
0
0
ATTRIB
8
PNTDESC
10
610258.7250000026500000
20
7529157.4685000014000000
30
806.4900000000000100
40
0.1500000000000000
1
BASE
7
PTXT
72
1
11
610258.7250000026500000
21
7529157.4685000014000000
31
806.4900000000000100
2
DESC2
70
0
0
SEQEND
8
PNTS
0
POINT
8
PNTS
10
610258.7250000026500000
20
7529157.7310000015000000
30
806.4900000000000100
1001
PNTNO
1000
1
1070
1
0
INSERT
8
PNTS
2
SPT0
10
610075.4573977988900000
20
7528823.7517939312000000
30
756.8071489999999800
41
0.1500000000000000
42
0.1500000000000000
43
0.1500000000000000
1001
SPT
1070
1
1001
PNTNO
1000
2
1070
1
0
INSERT
8
PNTS
66
1
2
SRVPNO3
10
610075.4573977988900000
20
7528823.7517939312000000
30
756.8071489999999800
41
0.1500000000000000
42
0.1500000000000000
43
0.1500000000000000
1001
PNTNO
1000
2
1070
1
0
ATTRIB
8
PNTNO
10
610075.4573977988900000
20
7528823.8642939311000000
30
756.8071489999999800
40
0.1500000000000000
1
2
7
PTXT
72
1
11
610075.4573977988900000
21
7528823.8642939311000000
31
756.8071489999999800
2
PT#
70
0
0
ATTRIB
8
PNTELEV
10
610075.6823977988700000
20
7528823.6767939311000000
30
756.8071489999999800
40
0.1500000000000000
1
756.81
50
45.0000000000000000
7
PTXT
2
ELEV2
70
0
0
ATTRIB
8
PNTDESC
10
610075.4573977988900000
20
7528823.4892939311000000
30
756.8071489999999800
40
0.1500000000000000
1
SIGEF
7
PTXT
72
1
11
610075.4573977988900000
21
7528823.4892939311000000
31
756.8071489999999800
2
DESC2
70
0
0
SEQEND
8
PNTS
0
POINT
8
PNTS
10
610075.4573977988900000
20
7528823.7517939312000000
30
756.8071489999999800
1001
PNTNO
1000
2
1070
1
0
INSERT
8
PNTS
2
SPT0
10
610074.7993107396200000
20
7528823.9188727727000000
30
756.4808330000000800
41
0.1500000000000000
42
0.1500000000000000
43
0.1500000000000000
1001
SPT
1070
1
1001
PNTNO
1000
3
1070
1
0
INSERT
8
PNTS
66
1
2
SRVPNO3
10
610074.7993107396200000
20
7528823.9188727727000000
30
756.4808330000000800
41
0.1500000000000000
42
0.1500000000000000
43
0.1500000000000000
1001
PNTNO
1000
3
1070
1
0
ATTRIB
8
PNTNO
10
610074.7993107396200000
20
7528824.0313727725000000
30
756.4808330000000800
40
0.1500000000000000
1
3
7
PTXT
72
1
11
610074.7993107396200000
21
7528824.0313727725000000
31
756.4808330000000800
2
PT#
70
0
0
ATTRIB
8
PNTELEV
10
610075.0243107395900000
20
7528823.8438727725000000
30
756.4808330000000800
40
0.1500000000000000
1
756.48
50
45.0000000000000000
7
PTXT
2
ELEV2
70
0
0
ATTRIB
8
PNTDESC
10
610074.7993107396200000
20
7528823.6563727725000000
30
756.4808330000000800
40
0.1500000000000000
1
INXX0225
7
PTXT
72
1
11
610074.7993107396200000
21
7528823.6563727725000000
31
756.4808330000000800
2
DESC2
70
0
0
SEQEND
8
PNTS
0
POINT
8
PNTS
10
610074.7993107396200000
20
7528823.9188727727000000
30
756.4808330000000800
1001
PNTNO
1000
3
1070
1
0
INSERT
8
PNTS
2
SPT0
10
610021.5154080730900000
20
7528847.9954314539000000
30
754.9448090000000800
41
0.1500000000000000
42
0.1500000000000000
43
0.1500000000000000
1001
SPT
1070
1
1001
PNTNO
1000
4
1070
1
0
INSERT
8
PNTS
66
1
2
SRVPNO3
10
610021.5154080730900000
20
7528847.9954314539000000
30
754.9448090000000800
41
0.1500000000000000
42
0.1500000000000000
43
0.1500000000000000
1001
PNTNO
1000
4
1070
1
0
ATTRIB
8
PNTNO
10
610021.5154080730900000
20
7528848.1079314537000000
30
754.9448090000000800
40
0.1500000000000000
1
4
7
PTXT
72
1
11
610021.5154080730900000
21
7528848.1079314537000000
31
754.9448090000000800
2
PT#
70
0
0
ATTRIB
8
PNTELEV
10
610021.7404080730600000
20
7528847.9204314537000000
30
754.9448090000000800
40
0.1500000000000000
1
754.94
50
45.0000000000000000
7
PTXT
2
ELEV2
70
0
0
ATTRIB
8
PNTDESC
10
610021.5154080730900000
20
7528847.7329314537000000
30
754.9448090000000800
40
0.1500000000000000
1
CERCA
7
PTXT
72
1
11
610021.5154080730900000
21
7528847.7329314537000000
31
754.9448090000000800
2
DESC2
70
0
0
SEQEND
8
PNTS
0
POINT
8
PNTS
10
610021.5154080730900000
20
7528847.9954314539000000
30
754.9448090000000800
1001
PNTNO
1000
4
1070
1
0
INSERT
8
PNTS
2
SPT0
10
609894.5269340203400000
20
7528914.4848374119000000
30
727.2123780000000600
41
0.1500000000000000
42
0.1500000000000000
43
0.1500000000000000
1001
SPT
1070
1
1001
PNTNO
1000
5
1070
1
0
INSERT
8
PNTS
66
1
2
SRVPNO3
10
609894.5269340203400000
20
7528914.4848374119000000
30
727.2123780000000600
41
0.1500000000000000
42
0.1500000000000000
43
0.1500000000000000
1001
PNTNO
1000
5
1070
1
0
ATTRIB
8
PNTNO
10
609894.5269340203400000
20
7528914.5973374117000000
30
727.2123780000000600
40
0.1500000000000000
1
5
7
PTXT
72
1
11
609894.5269340203400000
21
7528914.5973374117000000
31
727.2123780000000600
2
PT#
70
0
0
ATTRIB
8
PNTELEV
10
609894.7519340203100000
20
7528914.4098374117000000
30
727.2123780000000600
40
0.1500000000000000
1
727.21
50
45.0000000000000000
7
PTXT
2
ELEV2
70
0
0
ATTRIB
8
PNTDESC
10
609894.5269340203400000
20
7528914.2223374117000000
30
727.2123780000000600
40
0.1500000000000000
1
CERCA
7
PTXT
72
1
11
609894.5269340203400000
21
7528914.2223374117000000
31
727.2123780000000600
2
DESC2
70
0
0
SEQEND
8
PNTS
0
POINT
8
PNTS
10
609894.5269340203400000
20
7528914.4848374119000000
30
727.2123780000000600
1001
PNTNO
1000
5
1070
1
0
INSERT
8
PNTS
2
SPT0
10
609480.3744697659300000
20
7529111.7941091303000000
30
624.4061100000000100
41
0.1500000000000000
42
0.1500000000000000
43
0.1500000000000000
1001
SPT
1070
1
1001
PNTNO
1000
6
1070
1
0
INSERT
8
PNTS
66
1
2
SRVPNO3
10
609480.3744697659300000
20
7529111.7941091303000000
30
624.4061100000000100
41
0.1500000000000000
42
0.1500000000000000
43
0.1500000000000000
1001
PNTNO
1000
6
1070
1
0
ATTRIB
8
PNTNO
10
609480.3744697659300000
20
7529111.9066091301000000
30
624.4061100000000100
40
0.1500000000000000
1
6
7
PTXT
72
1
11
609480.3744697659300000
21
7529111.9066091301000000
31
624.4061100000000100
2
PT#
70
0
0
ATTRIB
8
PNTELEV
10
609480.5994697659000000
20
7529111.7191091301000000
30
624.4061100000000100
40
0.1500000000000000
1
624.41
50
45.0000000000000000
7
PTXT
2
ELEV2
70
0
0
ATTRIB
8
PNTDESC
10
609480.3744697659300000
20
7529111.5316091301000000
30
624.4061100000000100
40
0.1500000000000000
1
INXX0226
7
PTXT
72
1
11
609480.3744697659300000
21
7529111.5316091301000000
31
624.4061100000000100
2
DESC2
70
0
0
SEQEND
8
PNTS
0
POINT
8
PNTS
10
609480.3744697659300000
20
7529111.7941091303000000
30
624.4061100000000100
1001
PNTNO
1000
6
1070
1
0
INSERT
8
PNTS
2
SPT0
10
609497.4898408472100000
20
7529466.9902732661000000
30
709.4443210000000600
41
0.1500000000000000
42
0.1500000000000000
43
0.1500000000000000
1001
SPT
1070
1
1001
PNTNO
1000
7
1070
1
0
INSERT
8
PNTS
66
1
2
SRVPNO3
10
609497.4898408472100000
20
7529466.9902732661000000
30
709.4443210000000600
41
0.1500000000000000
42
0.1500000000000000
43
0.1500000000000000
1001
PNTNO
1000
7
1070
1
0
ATTRIB
8
PNTNO
10
609497.4898408472100000
20
7529467.1027732659000000
30
709.4443210000000600
40
0.1500000000000000
1
7
7
PTXT
72
1
11
609497.4898408472100000
21
7529467.1027732659000000
31
709.4443210000000600
2
PT#
70
0
0
ATTRIB
8
PNTELEV
10
609497.7148408471800000
20
7529466.9152732659000000
30
709.4443210000000600
40
0.1500000000000000
1
709.44
50
45.0000000000000000
7
PTXT
2
ELEV2
70
0
0
ATTRIB
8
PNTDESC
10
609497.4898408472100000
20
7529466.7277732659000000
30
709.4443210000000600
40
0.1500000000000000
1
CERCA
7
PTXT
72
1
11
609497.4898408472100000
21
7529466.7277732659000000
31
709.4443210000000600
2
DESC2
70
0
0
SEQEND
8
PNTS
0
POINT
8
PNTS
10
609497.4898408472100000
20
7529466.9902732661000000
30
709.4443210000000600
1001
PNTNO
1000
7
1070
1
0
INSERT
8
PNTS
2
SPT0
10
609509.7642295162700000
20
7529755.0105598010000000
30
614.7509119999999700
41
0.1500000000000000
42
0.1500000000000000
43
0.1500000000000000
1001
SPT
1070
1
1001
PNTNO
1000
8
1070
1
0
INSERT
8
PNTS
66
1
2
SRVPNO3
10
609509.7642295162700000
20
7529755.0105598010000000
30
614.7509119999999700
41
0.1500000000000000
42
0.1500000000000000
43
0.1500000000000000
1001
PNTNO
1000
8
1070
1
0
ATTRIB
8
PNTNO
10
609509.7642295162700000
20
7529755.1230598008000000
30
614.7509119999999700
40
0.1500000000000000
1
8
7
PTXT
72
1
11
609509.7642295162700000
21
7529755.1230598008000000
31
614.7509119999999700
2
PT#
70
0
0
ATTRIB
8
PNTELEV
10
609509.9892295162400000
20
7529754.9355598008000000
30
614.7509119999999700
40
0.1500000000000000
1
614.75
50
45.0000000000000000
7
PTXT
2
ELEV2
70
0
0
ATTRIB
8
PNTDESC
10
609509.7642295162700000
20
7529754.7480598008000000
30
614.7509119999999700
40
0.1500000000000000
1
CERCA
7
PTXT
72
1
11
609509.7642295162700000
21
7529754.7480598008000000
31
614.7509119999999700
2
DESC2
70
0
0
SEQEND
8
PNTS
0
POINT
8
PNTS
10
609509.7642295162700000
20
7529755.0105598010000000
30
614.7509119999999700
1001
PNTNO
1000
8
1070
1
0
INSERT
8
PNTS
2
SPT0
10
609511.1571953997500000
20
7529787.3016727706000000
30
609.5972790000000700
41
0.1500000000000000
42
0.1500000000000000
43
0.1500000000000000
1001
SPT
1070
1
1001
PNTNO
1000
9
1070
1
0
INSERT
8
PNTS
66
1
2
SRVPNO3
10
609511.1571953997500000
20
7529787.3016727706000000
30
609.5972790000000700
41
0.1500000000000000
42
0.1500000000000000
43
0.1500000000000000
1001
PNTNO
1000
9
1070
1
0
ATTRIB
8
PNTNO
10
609511.1571953997500000
20
7529787.4141727705000000
30
609.5972790000000700
40
0.1500000000000000
1
9
7
PTXT
72
1
11
609511.1571953997500000
21
7529787.4141727705000000
31
609.5972790000000700
2
PT#
70
0
0
ATTRIB
8
PNTELEV
10
609511.3821953997200000
20
7529787.2266727705000000
30
609.5972790000000700
40
0.1500000000000000
1
609.60
50
45.0000000000000000
7
PTXT
2
ELEV2
70
0
0
ATTRIB
8
PNTDESC
10
609511.1571953997500000
20
7529787.0391727705000000
30
609.5972790000000700
40
0.1500000000000000
1
INXX0228
7
PTXT
72
1
11
609511.1571953997500000
21
7529787.0391727705000000
31
609.5972790000000700
2
DESC2
70
0
0
SEQEND
8
PNTS
0
POINT
8
PNTS
10
609511.1571953997500000
20
7529787.3016727706000000
30
609.5972790000000700
1001
PNTNO
1000
9
1070
1
0
INSERT
8
PNTS
2
SPT0
10
609565.8811473147900000
20
7529748.7636243608000000
30
614.6347420000000700
41
0.1500000000000000
42
0.1500000000000000
43
0.1500000000000000
1001
SPT
1070
1
1001
PNTNO
1000
10
1070
1
0
INSERT
8
PNTS
66
1
2
SRVPNO3
10
609565.8811473147900000
20
7529748.7636243608000000
30
614.6347420000000700
41
0.1500000000000000
42
0.1500000000000000
43
0.1500000000000000
1001
PNTNO
1000
10
1070
1
0
ATTRIB
8
PNTNO
10
609565.8811473147900000
20
7529748.8761243606000000
30
614.6347420000000700
40
0.1500000000000000
1
10
7
PTXT
72
1
11
609565.8811473147900000
21
7529748.8761243606000000
31
614.6347420000000700
2
PT#
70
0
0
ATTRIB
8
PNTELEV
10
609566.1061473147700000
20
7529748.6886243606000000
30
614.6347420000000700
40
0.1500000000000000
1
614.63
50
45.0000000000000000
7
PTXT
2
ELEV2
70
0
0
ATTRIB
8
PNTDESC
10
609565.8811473147900000
20
7529748.5011243606000000
30
614.6347420000000700
40
0.1500000000000000
1
CERCA
7
PTXT
72
1
11
609565.8811473147900000
21
7529748.5011243606000000
31
614.6347420000000700
2
DESC2
70
0
0
SEQEND
8
PNTS
0
POINT
8
PNTS
10
609565.8811473147900000
20
7529748.7636243608000000
30
614.6347420000000700
1001
PNTNO
1000
10
1070
1
0
INSERT
8
PNTS
2
SPT0
10
609794.7061073223600000
20
7529665.1804148946000000
30
618.3173150000000100
41
0.1500000000000000
42
0.1500000000000000
43
0.1500000000000000
1001
SPT
1070
1
1001
PNTNO
1000
11
1070
1
0
INSERT
8
PNTS
66
1
2
SRVPNO3
10
609794.7061073223600000
20
7529665.1804148946000000
30
618.3173150000000100
41
0.1500000000000000
42
0.1500000000000000
43
0.1500000000000000
1001
PNTNO
1000
11
1070
1
0
ATTRIB
8
PNTNO
10
609794.7061073223600000
20
7529665.2929148944000000
30
618.3173150000000100
40
0.1500000000000000
1
11
7
PTXT
72
1
11
609794.7061073223600000
21
7529665.2929148944000000
31
618.3173150000000100
2
PT#
70
0
0
ATTRIB
8
PNTELEV
10
609794.9311073223400000
20
7529665.1054148944000000
30
618.3173150000000100
40
0.1500000000000000
1
618.32
50
45.0000000000000000
7
PTXT
2
ELEV2
70
0
0
ATTRIB
8
PNTDESC
10
609794.7061073223600000
20
7529664.9179148944000000
30
618.3173150000000100
40
0.1500000000000000
1
CERCA
7
PTXT
72
1
11
609794.7061073223600000
21
7529664.9179148944000000
31
618.3173150000000100
2
DESC2
70
0
0
SEQEND
8
PNTS
0
POINT
8
PNTS
10
609794.7061073223600000
20
7529665.1804148946000000
30
618.3173150000000100
1001
PNTNO
1000
11
1070
1
0
INSERT
8
PNTS
2
SPT0
10
609840.1314028800700000
20
7529683.4631045517000000
30
645.6763790000000000
41
0.1500000000000000
42
0.1500000000000000
43
0.1500000000000000
1001
SPT
1070
1
1001
PNTNO
1000
12
1070
1
0
INSERT
8
PNTS
66
1
2
SRVPNO3
10
609840.1314028800700000
20
7529683.4631045517000000
30
645.6763790000000000
41
0.1500000000000000
42
0.1500000000000000
43
0.1500000000000000
1001
PNTNO
1000
12
1070
1
0
ATTRIB
8
PNTNO
10
609840.1314028800700000
20
7529683.5756045515000000
30
645.6763790000000000
40
0.1500000000000000
1
12
7
PTXT
72
1
11
609840.1314028800700000
21
7529683.5756045515000000
31
645.6763790000000000
2
PT#
70
0
0
ATTRIB
8
PNTELEV
10
609840.3564028800500000
20
7529683.3881045515000000
30
645.6763790000000000
40
0.1500000000000000
1
645.68
50
45.0000000000000000
7
PTXT
2
ELEV2
70
0
0
ATTRIB
8
PNTDESC
10
609840.1314028800700000
20
7529683.2006045515000000
30
645.6763790000000000
40
0.1500000000000000
1
CERCA
7
PTXT
72
1
11
609840.1314028800700000
21
7529683.2006045515000000
31
645.6763790000000000
2
DESC2
70
0
0
SEQEND
8
PNTS
0
POINT
8
PNTS
10
609840.1314028800700000
20
7529683.4631045517000000
30
645.6763790000000000
1001
PNTNO
1000
12
1070
1
0
INSERT
8
PNTS
2
SPT0
10
609858.0069486195000000
20
7529690.7514437148000000
30
657.7124160000000800
41
0.1500000000000000
42
0.1500000000000000
43
0.1500000000000000
1001
SPT
1070
1
1001
PNTNO
1000
13
1070
1
0
INSERT
8
PNTS
66
1
2
SRVPNO3
10
609858.0069486195000000
20
7529690.7514437148000000
30
657.7124160000000800
41
0.1500000000000000
42
0.1500000000000000
43
0.1500000000000000
1001
PNTNO
1000
13
1070
1
0
ATTRIB
8
PNTNO
10
609858.0069486195000000
20
7529690.8639437146000000
30
657.7124160000000800
40
0.1500000000000000
1
13
7
PTXT
72
1
11
609858.0069486195000000
21
7529690.8639437146000000
31
657.7124160000000800
2
PT#
70
0
0
ATTRIB
8
PNTELEV
10
609858.2319486194800000
20
7529690.6764437146000000
30
657.7124160000000800
40
0.1500000000000000
1
657.71
50
45.0000000000000000
7
PTXT
2
ELEV2
70
0
0
ATTRIB
8
PNTDESC
10
609858.0069486195000000
20
7529690.4889437146000000
30
657.7124160000000800
40
0.1500000000000000
1
CERCA
7
PTXT
72
1
11
609858.0069486195000000
21
7529690.4889437146000000
31
657.7124160000000800
2
DESC2
70
0
0
SEQEND
8
PNTS
0
POINT
8
PNTS
10
609858.0069486195000000
20
7529690.7514437148000000
30
657.7124160000000800
1001
PNTNO
1000
13
1070
1
0
INSERT
8
PNTS
2
SPT0
10
609879.6050266980900000
20
7529698.5414902000000000
30
674.0049860000000300
41
0.1500000000000000
42
0.1500000000000000
43
0.1500000000000000
1001
SPT
1070
1
1001
PNTNO
1000
14
1070
1
0
INSERT
8
PNTS
66
1
2
SRVPNO3
10
609879.6050266980900000
20
7529698.5414902000000000
30
674.0049860000000300
41
0.1500000000000000
42
0.1500000000000000
43
0.1500000000000000
1001
PNTNO
1000
14
1070
1
0
ATTRIB
8
PNTNO
10
609879.6050266980900000
20
7529698.6539901998000000
30
674.0049860000000300
40
0.1500000000000000
1
14
7
PTXT
72
1
11
609879.6050266980900000
21
7529698.6539901998000000
31
674.0049860000000300
2
PT#
70
0
0
ATTRIB
8
PNTELEV
10
609879.8300266980700000
20
7529698.4664901998000000
30
674.0049860000000300
40
0.1500000000000000
1
674.00
50
45.0000000000000000
7
PTXT
2
ELEV2
70
0
0
ATTRIB
8
PNTDESC
10
609879.6050266980900000
20
7529698.2789901998000000
30
674.0049860000000300
40
0.1500000000000000
1
CERCA
7
PTXT
72
1
11
609879.6050266980900000
21
7529698.2789901998000000
31
674.0049860000000300
2
DESC2
70
0
0
SEQEND
8
PNTS
0
POINT
8
PNTS
10
609879.6050266980900000
20
7529698.5414902000000000
30
674.0049860000000300
1001
PNTNO
1000
14
1070
1
0
INSERT
8
PNTS
2
SPT0
10
610168.2455863152900000
20
7529844.1215997273000000
30
677.7116849999999900
41
0.1500000000000000
42
0.1500000000000000
43
0.1500000000000000
1001
SPT
1070
1
1001
PNTNO
1000
15
1070
1
0
INSERT
8
PNTS
66
1
2
SRVPNO3
10
610168.2455863152900000
20
7529844.1215997273000000
30
677.7116849999999900
41
0.1500000000000000
42
0.1500000000000000
43
0.1500000000000000
1001
PNTNO
1000
15
1070
1
0
ATTRIB
8
PNTNO
10
610168.2455863152900000
20
7529844.2340997271000000
30
677.7116849999999900
40
0.1500000000000000
1
15
7
PTXT
72
1
11
610168.2455863152900000
21
7529844.2340997271000000
31
677.7116849999999900
2
PT#
70
0
0
ATTRIB
8
PNTELEV
10
610168.4705863152600000
20
7529844.0465997271000000
30
677.7116849999999900
40
0.1500000000000000
1
677.71
50
45.0000000000000000
7
PTXT
2
ELEV2
70
0
0
ATTRIB
8
PNTDESC
10
610168.2455863152900000
20
7529843.8590997271000000
30
677.7116849999999900
40
0.1500000000000000
1
CERCA
7
PTXT
72
1
11
610168.2455863152900000
21
7529843.8590997271000000
31
677.7116849999999900
2
DESC2
70
0
0
SEQEND
8
PNTS
0
POINT
8
PNTS
10
610168.2455863152900000
20
7529844.1215997273000000
30
677.7116849999999900
1001
PNTNO
1000
15
1070
1
0
INSERT
8
PNTS
2
SPT0
10
610176.3995086401700000
20
7529834.5046118833000000
30
672.7765729999999800
41
0.1500000000000000
42
0.1500000000000000
43
0.1500000000000000
1001
SPT
1070
1
1001
PNTNO
1000
16
1070
1
0
INSERT
8
PNTS
66
1
2
SRVPNO3
10
610176.3995086401700000
20
7529834.5046118833000000
30
672.7765729999999800
41
0.1500000000000000
42
0.1500000000000000
43
0.1500000000000000
1001
PNTNO
1000
16
1070
1
0
ATTRIB
8
PNTNO
10
610176.3995086401700000
20
7529834.6171118831000000
30
672.7765729999999800
40
0.1500000000000000
1
16
7
PTXT
72
1
11
610176.3995086401700000
21
7529834.6171118831000000
31
672.7765729999999800
2
PT#
70
0
0
ATTRIB
8
PNTELEV
10
610176.6245086401500000
20
7529834.4296118831000000
30
672.7765729999999800
40
0.1500000000000000
1
672.78
50
45.0000000000000000
7
PTXT
2
ELEV2
70
0
0
ATTRIB
8
PNTDESC
10
610176.3995086401700000
20
7529834.2421118831000000
30
672.7765729999999800
40
0.1500000000000000
1
CERCA
7
PTXT
72
1
11
610176.3995086401700000
21
7529834.2421118831000000
31
672.7765729999999800
2
DESC2
70
0
0
SEQEND
8
PNTS
0
POINT
8
PNTS
10
610176.3995086401700000
20
7529834.5046118833000000
30
672.7765729999999800
1001
PNTNO
1000
16
1070
1
0
INSERT
8
PNTS
2
SPT0
10
610214.8870270059000000
20
7529810.2250604061000000
30
683.5552089999999900
41
0.1500000000000000
42
0.1500000000000000
43
0.1500000000000000
1001
SPT
1070
1
1001
PNTNO
1000
17
1070
1
0
INSERT
8
PNTS
66
1
2
SRVPNO3
10
610214.8870270059000000
20
7529810.2250604061000000
30
683.5552089999999900
41
0.1500000000000000
42
0.1500000000000000
43
0.1500000000000000
1001
PNTNO
1000
17
1070
1
0
ATTRIB
8
PNTNO
10
610214.8870270059000000
20
7529810.3375604060000000
30
683.5552089999999900
40
0.1500000000000000
1
17
7
PTXT
72
1
11
610214.8870270059000000
21
7529810.3375604060000000
31
683.5552089999999900
2
PT#
70
0
0
ATTRIB
8
PNTELEV
10
610215.1120270058700000
20
7529810.1500604060000000
30
683.5552089999999900
40
0.1500000000000000
1
683.56
50
45.0000000000000000
7
PTXT
2
ELEV2
70
0
0
ATTRIB
8
PNTDESC
10
610214.8870270059000000
20
7529809.9625604060000000
30
683.5552089999999900
40
0.1500000000000000
1
CERCA
7
PTXT
72
1
11
610214.8870270059000000
21
7529809.9625604060000000
31
683.5552089999999900
2
DESC2
70
0
0
SEQEND
8
PNTS
0
POINT
8
PNTS
10
610214.8870270059000000
20
7529810.2250604061000000
30
683.5552089999999900
1001
PNTNO
1000
17
1070
1
0
INSERT
8
PNTS
2
SPT0
10
610221.5710258780700000
20
7529803.4805193627000000
30
684.9484430000000000
41
0.1500000000000000
42
0.1500000000000000
43
0.1500000000000000
1001
SPT
1070
1
1001
PNTNO
1000
18
1070
1
0
INSERT
8
PNTS
66
1
2
SRVPNO3
10
610221.5710258780700000
20
7529803.4805193627000000
30
684.9484430000000000
41
0.1500000000000000
42
0.1500000000000000
43
0.1500000000000000
1001
PNTNO
1000
18
1070
1
0
ATTRIB
8
PNTNO
10
610221.5710258780700000
20
7529803.5930193625000000
30
684.9484430000000000
40
0.1500000000000000
1
18
7
PTXT
72
1
11
610221.5710258780700000
21
7529803.5930193625000000
31
684.9484430000000000
2
PT#
70
0
0
ATTRIB
8
PNTELEV
10
610221.7960258780500000
20
7529803.4055193625000000
30
684.9484430000000000
40
0.1500000000000000
1
684.95
50
45.0000000000000000
7
PTXT
2
ELEV2
70
0
0
ATTRIB
8
PNTDESC
10
610221.5710258780700000
20
7529803.2180193625000000
30
684.9484430000000000
40
0.1500000000000000
1
CERCA
7
PTXT
72
1
11
610221.5710258780700000
21
7529803.2180193625000000
31
684.9484430000000000
2
DESC2
70
0
0
SEQEND
8
PNTS
0
POINT
8
PNTS
10
610221.5710258780700000
20
7529803.4805193627000000
30
684.9484430000000000
1001
PNTNO
1000
18
1070
1
0
INSERT
8
PNTS
2
SPT0
10
610225.6384892677900000
20
7529796.0255993987000000
30
686.3197169999999700
41
0.1500000000000000
42
0.1500000000000000
43
0.1500000000000000
1001
SPT
1070
1
1001
PNTNO
1000
19
1070
1
0
INSERT
8
PNTS
66
1
2
SRVPNO3
10
610225.6384892677900000
20
7529796.0255993987000000
30
686.3197169999999700
41
0.1500000000000000
42
0.1500000000000000
43
0.1500000000000000
1001
PNTNO
1000
19
1070
1
0
ATTRIB
8
PNTNO
10
610225.6384892677900000
20
7529796.1380993985000000
30
686.3197169999999700
40
0.1500000000000000
1
19
7
PTXT
72
1
11
610225.6384892677900000
21
7529796.1380993985000000
31
686.3197169999999700
2
PT#
70
0
0
ATTRIB
8
PNTELEV
10
610225.8634892677700000
20
7529795.9505993985000000
30
686.3197169999999700
40
0.1500000000000000
1
686.32
50
45.0000000000000000
7
PTXT
2
ELEV2
70
0
0
ATTRIB
8
PNTDESC
10
610225.6384892677900000
20
7529795.7630993985000000
30
686.3197169999999700
40
0.1500000000000000
1
CERCA
7
PTXT
72
1
11
610225.6384892677900000
21
7529795.7630993985000000
31
686.3197169999999700
2
DESC2
70
0
0
SEQEND
8
PNTS
0
POINT
8
PNTS
10
610225.6384892677900000
20
7529796.0255993987000000
30
686.3197169999999700
1001
PNTNO
1000
19
1070
1
0
INSERT
8
PNTS
2
SPT0
10
610230.0808504823400000
20
7529782.8756527575000000
30
687.9728509999999900
41
0.1500000000000000
42
0.1500000000000000
43
0.1500000000000000
1001
SPT
1070
1
1001
PNTNO
1000
20
1070
1
0
INSERT
8
PNTS
66
1
2
SRVPNO3
10
610230.0808504823400000
20
7529782.8756527575000000
30
687.9728509999999900
41
0.1500000000000000
42
0.1500000000000000
43
0.1500000000000000
1001
PNTNO
1000
20
1070
1
0
ATTRIB
8
PNTNO
10
610230.0808504823400000
20
7529782.9881527573000000
30
687.9728509999999900
40
0.1500000000000000
1
20
7
PTXT
72
1
11
610230.0808504823400000
21
7529782.9881527573000000
31
687.9728509999999900
2
PT#
70
0
0
ATTRIB
8
PNTELEV
10
610230.3058504823100000
20
7529782.8006527573000000
30
687.9728509999999900
40
0.1500000000000000
1
687.97
50
45.0000000000000000
7
PTXT
2
ELEV2
70
0
0
ATTRIB
8
PNTDESC
10
610230.0808504823400000
20
7529782.6131527573000000
30
687.9728509999999900
40
0.1500000000000000
1
CERCA
7
PTXT
72
1
11
610230.0808504823400000
21
7529782.6131527573000000
31
687.9728509999999900
2
DESC2
70
0
0
SEQEND
8
PNTS
0
POINT
8
PNTS
10
610230.0808504823400000
20
7529782.8756527575000000
30
687.9728509999999900
1001
PNTNO
1000
20
1070
1
0
INSERT
8
PNTS
2
SPT0
10
610241.7022552891900000
20
7529768.2304237615000000
30
690.2120499999999800
41
0.1500000000000000
42
0.1500000000000000
43
0.1500000000000000
1001
SPT
1070
1
1001
PNTNO
1000
21
1070
1
0
INSERT
8
PNTS
66
1
2
SRVPNO3
10
610241.7022552891900000
20
7529768.2304237615000000
30
690.2120499999999800
41
0.1500000000000000
42
0.1500000000000000
43
0.1500000000000000
1001
PNTNO
1000
21
1070
1
0
ATTRIB
8
PNTNO
10
610241.7022552891900000
20
7529768.3429237613000000
30
690.2120499999999800
40
0.1500000000000000
1
21
7
PTXT
72
1
11
610241.7022552891900000
21
7529768.3429237613000000
31
690.2120499999999800
2
PT#
70
0
0
ATTRIB
8
PNTELEV
10
610241.9272552891600000
20
7529768.1554237613000000
30
690.2120499999999800
40
0.1500000000000000
1
690.21
50
45.0000000000000000
7
PTXT
2
ELEV2
70
0
0
ATTRIB
8
PNTDESC
10
610241.7022552891900000
20
7529767.9679237613000000
30
690.2120499999999800
40
0.1500000000000000
1
CERCA
7
PTXT
72
1
11
610241.7022552891900000
21
7529767.9679237613000000
31
690.2120499999999800
2
DESC2
70
0
0
SEQEND
8
PNTS
0
POINT
8
PNTS
10
610241.7022552891900000
20
7529768.2304237615000000
30
690.2120499999999800
1001
PNTNO
1000
21
1070
1
0
INSERT
8
PNTS
2
SPT0
10
610249.8033867182700000
20
7529758.4296525847000000
30
690.9739960000000600
41
0.1500000000000000
42
0.1500000000000000
43
0.1500000000000000
1001
SPT
1070
1
1001
PNTNO
1000
22
1070
1
0
INSERT
8
PNTS
66
1
2
SRVPNO3
10
610249.8033867182700000
20
7529758.4296525847000000
30
690.9739960000000600
41
0.1500000000000000
42
0.1500000000000000
43
0.1500000000000000
1001
PNTNO
1000
22
1070
1
0
ATTRIB
8
PNTNO
10
610249.8033867182700000
20
7529758.5421525845000000
30
690.9739960000000600
40
0.1500000000000000
1
22
7
PTXT
72
1
11
610249.8033867182700000
21
7529758.5421525845000000
31
690.9739960000000600
2
PT#
70
0
0
ATTRIB
8
PNTELEV
10
610250.0283867182400000
20
7529758.3546525845000000
30
690.9739960000000600
40
0.1500000000000000
1
690.97
50
45.0000000000000000
7
PTXT
2
ELEV2
70
0
0
ATTRIB
8
PNTDESC
10
610249.8033867182700000
20
7529758.1671525845000000
30
690.9739960000000600
40
0.1500000000000000
1
CERCA
7
PTXT
72
1
11
610249.8033867182700000
21
7529758.1671525845000000
31
690.9739960000000600
2
DESC2
70
0
0
SEQEND
8
PNTS
0
POINT
8
PNTS
10
610249.8033867182700000
20
7529758.4296525847000000
30
690.9739960000000600
1001
PNTNO
1000
22
1070
1
0
INSERT
8
PNTS
2
SPT0
10
610260.7801993136500000
20
7529754.5850024400000000
30
692.5486799999999900
41
0.1500000000000000
42
0.1500000000000000
43
0.1500000000000000
1001
SPT
1070
1
1001
PNTNO
1000
23
1070
1
0
INSERT
8
PNTS
66
1
2
SRVPNO3
10
610260.7801993136500000
20
7529754.5850024400000000
30
692.5486799999999900
41
0.1500000000000000
42
0.1500000000000000
43
0.1500000000000000
1001
PNTNO
1000
23
1070
1
0
ATTRIB
8
PNTNO
10
610260.7801993136500000
20
7529754.6975024398000000
30
692.5486799999999900
40
0.1500000000000000
1
23
7
PTXT
72
1
11
610260.7801993136500000
21
7529754.6975024398000000
31
692.5486799999999900
2
PT#
70
0
0
ATTRIB
8
PNTELEV
10
610261.0051993136300000
20
7529754.5100024398000000
30
692.5486799999999900
40
0.1500000000000000
1
692.55
50
45.0000000000000000
7
PTXT
2
ELEV2
70
0
0
ATTRIB
8
PNTDESC
10
610260.7801993136500000
20
7529754.3225024398000000
30
692.5486799999999900
40
0.1500000000000000
1
CERCA
7
PTXT
72
1
11
610260.7801993136500000
21
7529754.3225024398000000
31
692.5486799999999900
2
DESC2
70
0
0
SEQEND
8
PNTS
0
POINT
8
PNTS
10
610260.7801993136500000
20
7529754.5850024400000000
30
692.5486799999999900
1001
PNTNO
1000
23
1070
1
0
INSERT
8
PNTS
2
SPT0
10
610280.1779627169000000
20
7529747.0953185065000000
30
694.4452929999999900
41
0.1500000000000000
42
0.1500000000000000
43
0.1500000000000000
1001
SPT
1070
1
1001
PNTNO
1000
24
1070
1
0
INSERT
8
PNTS
66
1
2
SRVPNO3
10
610280.1779627169000000
20
7529747.0953185065000000
30
694.4452929999999900
41
0.1500000000000000
42
0.1500000000000000
43
0.1500000000000000
1001
PNTNO
1000
24
1070
1
0
ATTRIB
8
PNTNO
10
610280.1779627169000000
20
7529747.2078185063000000
30
694.4452929999999900
40
0.1500000000000000
1
24
7
PTXT
72
1
11
610280.1779627169000000
21
7529747.2078185063000000
31
694.4452929999999900
2
PT#
70
0
0
ATTRIB
8
PNTELEV
10
610280.4029627168800000
20
7529747.0203185063000000
30
694.4452929999999900
40
0.1500000000000000
1
694.45
50
45.0000000000000000
7
PTXT
2
ELEV2
70
0
0
ATTRIB
8
PNTDESC
10
610280.1779627169000000
20
7529746.8328185063000000
30
694.4452929999999900
40
0.1500000000000000
1
CERCA
7
PTXT
72
1
11
610280.1779627169000000
21
7529746.8328185063000000
31
694.4452929999999900
2
DESC2
70
0
0
SEQEND
8
PNTS
0
POINT
8
PNTS
10
610280.1779627169000000
20
7529747.0953185065000000
30
694.4452929999999900
1001
PNTNO
1000
24
1070
1
0
INSERT
8
PNTS
2
SPT0
10
610315.4593010594800000
20
7529726.1796009792000000
30
699.5910000000000100
41
0.1500000000000000
42
0.1500000000000000
43
0.1500000000000000
1001
SPT
1070
1
1001
PNTNO
1000
25
1070
1
0
INSERT
8
PNTS
66
1
2
SRVPNO3
10
610315.4593010594800000
20
7529726.1796009792000000
30
699.5910000000000100
41
0.1500000000000000
42
0.1500000000000000
43
0.1500000000000000
1001
PNTNO
1000
25
1070
1
0
ATTRIB
8
PNTNO
10
610315.4593010594800000
20
7529726.2921009790000000
30
699.5910000000000100
40
0.1500000000000000
1
25
7
PTXT
72
1
11
610315.4593010594800000
21
7529726.2921009790000000
31
699.5910000000000100
2
PT#
70
0
0
ATTRIB
8
PNTELEV
10
610315.6843010594600000
20
7529726.1046009790000000
30
699.5910000000000100
40
0.1500000000000000
1
699.59
50
45.0000000000000000
7
PTXT
2
ELEV2
70
0
0
ATTRIB
8
PNTDESC
10
610315.4593010594800000
20
7529725.9171009790000000
30
699.5910000000000100
40
0.1500000000000000
1
CERCA
7
PTXT
72
1
11
610315.4593010594800000
21
7529725.9171009790000000
31
699.5910000000000100
2
DESC2
70
0
0
SEQEND
8
PNTS
0
POINT
8
PNTS
10
610315.4593010594800000
20
7529726.1796009792000000
30
699.5910000000000100
1001
PNTNO
1000
25
1070
1
0
INSERT
8
PNTS
2
SPT0
10
610331.3338888182800000
20
7529716.8458209978000000
30
701.5247840000000700
41
0.1500000000000000
42
0.1500000000000000
43
0.1500000000000000
1001
SPT
1070
1
1001
PNTNO
1000
26
1070
1
0
INSERT
8
PNTS
66
1
2
SRVPNO3
10
610331.3338888182800000
20
7529716.8458209978000000
30
701.5247840000000700
41
0.1500000000000000
42
0.1500000000000000
43
0.1500000000000000
1001
PNTNO
1000
26
1070
1
0
ATTRIB
8
PNTNO
10
610331.3338888182800000
20
7529716.9583209977000000
30
701.5247840000000700
40
0.1500000000000000
1
26
7
PTXT
72
1
11
610331.3338888182800000
21
7529716.9583209977000000
31
701.5247840000000700
2
PT#
70
0
0
ATTRIB
8
PNTELEV
10
610331.5588888182500000
20
7529716.7708209977000000
30
701.5247840000000700
40
0.1500000000000000
1
701.52
50
45.0000000000000000
7
PTXT
2
ELEV2
70
0
0
ATTRIB
8
PNTDESC
10
610331.3338888182800000
20
7529716.5833209977000000
30
701.5247840000000700
40
0.1500000000000000
1
CERCA
7
PTXT
72
1
11
610331.3338888182800000
21
7529716.5833209977000000
31
701.5247840000000700
2
DESC2
70
0
0
SEQEND
8
PNTS
0
POINT
8
PNTS
10
610331.3338888182800000
20
7529716.8458209978000000
30
701.5247840000000700
1001
PNTNO
1000
26
1070
1
0
INSERT
8
PNTS
2
SPT0
10
610367.3790442305600000
20
7529706.1034124605000000
30
705.7096360000000500
41
0.1500000000000000
42
0.1500000000000000
43
0.1500000000000000
1001
SPT
1070
1
1001
PNTNO
1000
27
1070
1
0
INSERT
8
PNTS
66
1
2
SRVPNO3
10
610367.3790442305600000
20
7529706.1034124605000000
30
705.7096360000000500
41
0.1500000000000000
42
0.1500000000000000
43
0.1500000000000000
1001
PNTNO
1000
27
1070
1
0
ATTRIB
8
PNTNO
10
610367.3790442305600000
20
7529706.2159124603000000
30
705.7096360000000500
40
0.1500000000000000
1
27
7
PTXT
72
1
11
610367.3790442305600000
21
7529706.2159124603000000
31
705.7096360000000500
2
PT#
70
0
0
ATTRIB
8
PNTELEV
10
610367.6040442305400000
20
7529706.0284124603000000
30
705.7096360000000500
40
0.1500000000000000
1
705.71
50
45.0000000000000000
7
PTXT
2
ELEV2
70
0
0
ATTRIB
8
PNTDESC
10
610367.3790442305600000
20
7529705.8409124603000000
30
705.7096360000000500
40
0.1500000000000000
1
CERCA
7
PTXT
72
1
11
610367.3790442305600000
21
7529705.8409124603000000
31
705.7096360000000500
2
DESC2
70
0
0
SEQEND
8
PNTS
0
POINT
8
PNTS
10
610367.3790442305600000
20
7529706.1034124605000000
30
705.7096360000000500
1001
PNTNO
1000
27
1070
1
0
INSERT
8
PNTS
2
SPT0
10
610381.4137579210800000
20
7529702.8468364766000000
30
707.4372640000000300
41
0.1500000000000000
42
0.1500000000000000
43
0.1500000000000000
1001
SPT
1070
1
1001
PNTNO
1000
28
1070
1
0
INSERT
8
PNTS
66
1
2
SRVPNO3
10
610381.4137579210800000
20
7529702.8468364766000000
30
707.4372640000000300
41
0.1500000000000000
42
0.1500000000000000
43
0.1500000000000000
1001
PNTNO
1000
28
1070
1
0
ATTRIB
8
PNTNO
10
610381.4137579210800000
20
7529702.9593364764000000
30
707.4372640000000300
40
0.1500000000000000
1
28
7
PTXT
72
1
11
610381.4137579210800000
21
7529702.9593364764000000
31
707.4372640000000300
2
PT#
70
0
0
ATTRIB
8
PNTELEV
10
610381.6387579210600000
20
7529702.7718364764000000
30
707.4372640000000300
40
0.1500000000000000
1
707.44
50
45.0000000000000000
7
PTXT
2
ELEV2
70
0
0
ATTRIB
8
PNTDESC
10
610381.4137579210800000
20
7529702.5843364764000000
30
707.4372640000000300
40
0.1500000000000000
1
CERCA
7
PTXT
72
1
11
610381.4137579210800000
21
7529702.5843364764000000
31
707.4372640000000300
2
DESC2
70
0
0
SEQEND
8
PNTS
0
POINT
8
PNTS
10
610381.4137579210800000
20
7529702.8468364766000000
30
707.4372640000000300
1001
PNTNO
1000
28
1070
1
0
INSERT
8
PNTS
2
SPT0
10
610387.7674428974300000
20
7529702.7527773716000000
30
708.1762320000000300
41
0.1500000000000000
42
0.1500000000000000
43
0.1500000000000000
1001
SPT
1070
1
1001
PNTNO
1000
29
1070
1
0
INSERT
8
PNTS
66
1
2
SRVPNO3
10
610387.7674428974300000
20
7529702.7527773716000000
30
708.1762320000000300
41
0.1500000000000000
42
0.1500000000000000
43
0.1500000000000000
1001
PNTNO
1000
29
1070
1
0
ATTRIB
8
PNTNO
10
610387.7674428974300000
20
7529702.8652773714000000
30
708.1762320000000300
40
0.1500000000000000
1
29
7
PTXT
72
1
11
610387.7674428974300000
21
7529702.8652773714000000
31
708.1762320000000300
2
PT#
70
0
0
ATTRIB
8
PNTELEV
10
610387.9924428974000000
20
7529702.6777773714000000
30
708.1762320000000300
40
0.1500000000000000
1
708.18
50
45.0000000000000000
7
PTXT
2
ELEV2
70
0
0
ATTRIB
8
PNTDESC
10
610387.7674428974300000
20
7529702.4902773714000000
30
708.1762320000000300
40
0.1500000000000000
1
CERCA
7
PTXT
72
1
11
610387.7674428974300000
21
7529702.4902773714000000
31
708.1762320000000300
2
DESC2
70
0
0
SEQEND
8
PNTS
0
POINT
8
PNTS
10
610387.7674428974300000
20
7529702.7527773716000000
30
708.1762320000000300
1001
PNTNO
1000
29
1070
1
0
INSERT
8
PNTS
2
SPT0
10
610399.9084759334800000
20
7529706.1497818893000000
30
709.2330500000000500
41
0.1500000000000000
42
0.1500000000000000
43
0.1500000000000000
1001
SPT
1070
1
1001
PNTNO
1000
30
1070
1
0
INSERT
8
PNTS
66
1
2
SRVPNO3
10
610399.9084759334800000
20
7529706.1497818893000000
30
709.2330500000000500
41
0.1500000000000000
42
0.1500000000000000
43
0.1500000000000000
1001
PNTNO
1000
30
1070
1
0
ATTRIB
8
PNTNO
10
610399.9084759334800000
20
7529706.2622818891000000
30
709.2330500000000500
40
0.1500000000000000
1
30
7
PTXT
72
1
11
610399.9084759334800000
21
7529706.2622818891000000
31
709.2330500000000500
2
PT#
70
0
0
ATTRIB
8
PNTELEV
10
610400.1334759334600000
20
7529706.0747818891000000
30
709.2330500000000500
40
0.1500000000000000
1
709.23
50
45.0000000000000000
7
PTXT
2
ELEV2
70
0
0
ATTRIB
8
PNTDESC
10
610399.9084759334800000
20
7529705.8872818891000000
30
709.2330500000000500
40
0.1500000000000000
1
CERCA
7
PTXT
72
1
11
610399.9084759334800000
21
7529705.8872818891000000
31
709.2330500000000500
2
DESC2
70
0
0
SEQEND
8
PNTS
0
POINT
8
PNTS
10
610399.9084759334800000
20
7529706.1497818893000000
30
709.2330500000000500
1001
PNTNO
1000
30
1070
1
0
INSERT
8
PNTS
2
SPT0
10
610415.6818741172300000
20
7529708.2062651077000000
30
710.5362139999999700
41
0.1500000000000000
42
0.1500000000000000
43
0.1500000000000000
1001
SPT
1070
1
1001
PNTNO
1000
31
1070
1
0
INSERT
8
PNTS
66
1
2
SRVPNO3
10
610415.6818741172300000
20
7529708.2062651077000000
30
710.5362139999999700
41
0.1500000000000000
42
0.1500000000000000
43
0.1500000000000000
1001
PNTNO
1000
31
1070
1
0
ATTRIB
8
PNTNO
10
610415.6818741172300000
20
7529708.3187651075000000
30
710.5362139999999700
40
0.1500000000000000
1
31
7
PTXT
72
1
11
610415.6818741172300000
21
7529708.3187651075000000
31
710.5362139999999700
2
PT#
70
0
0
ATTRIB
8
PNTELEV
10
610415.9068741172100000
20
7529708.1312651075000000
30
710.5362139999999700
40
0.1500000000000000
1
710.54
50
45.0000000000000000
7
PTXT
2
ELEV2
70
0
0
ATTRIB
8
PNTDESC
10
610415.6818741172300000
20
7529707.9437651075000000
30
710.5362139999999700
40
0.1500000000000000
1
CERCA
7
PTXT
72
1
11
610415.6818741172300000
21
7529707.9437651075000000
31
710.5362139999999700
2
DESC2
70
0
0
SEQEND
8
PNTS
0
POINT
8
PNTS
10
610415.6818741172300000
20
7529708.2062651077000000
30
710.5362139999999700
1001
PNTNO
1000
31
1070
1
0
INSERT
8
PNTS
2
SPT0
10
610418.7132306101300000
20
7529708.7591654519000000
30
710.8142910000000300
41
0.1500000000000000
42
0.1500000000000000
43
0.1500000000000000
1001
SPT
1070
1
1001
PNTNO
1000
32
1070
1
0
INSERT
8
PNTS
66
1
2
SRVPNO3
10
610418.7132306101300000
20
7529708.7591654519000000
30
710.8142910000000300
41
0.1500000000000000
42
0.1500000000000000
43
0.1500000000000000
1001
PNTNO
1000
32
1070
1
0
ATTRIB
8
PNTNO
10
610418.7132306101300000
20
7529708.8716654517000000
30
710.8142910000000300
40
0.1500000000000000
1
32
7
PTXT
72
1
11
610418.7132306101300000
21
7529708.8716654517000000
31
710.8142910000000300
2
PT#
70
0
0
ATTRIB
8
PNTELEV
10
610418.9382306101000000
20
7529708.6841654517000000
30
710.8142910000000300
40
0.1500000000000000
1
710.81
50
45.0000000000000000
7
PTXT
2
ELEV2
70
0
0
ATTRIB
8
PNTDESC
10
610418.7132306101300000
20
7529708.4966654517000000
30
710.8142910000000300
40
0.1500000000000000
1
CERCA
7
PTXT
72
1
11
610418.7132306101300000
21
7529708.4966654517000000
31
710.8142910000000300
2
DESC2
70
0
0
SEQEND
8
PNTS
0
POINT
8
PNTS
10
610418.7132306101300000
20
7529708.7591654519000000
30
710.8142910000000300
1001
PNTNO
1000
32
1070
1
0
INSERT
8
PNTS
2
SPT0
10
610421.2604144060800000
20
7529710.2470816877000000
30
711.2978580000000200
41
0.1500000000000000
42
0.1500000000000000
43
0.1500000000000000
1001
SPT
1070
1
1001
PNTNO
1000
33
1070
1
0
INSERT
8
PNTS
66
1
2
SRVPNO3
10
610421.2604144060800000
20
7529710.2470816877000000
30
711.2978580000000200
41
0.1500000000000000
42
0.1500000000000000
43
0.1500000000000000
1001
PNTNO
1000
33
1070
1
0
ATTRIB
8
PNTNO
10
610421.2604144060800000
20
7529710.3595816875000000
30
711.2978580000000200
40
0.1500000000000000
1
33
7
PTXT
72
1
11
610421.2604144060800000
21
7529710.3595816875000000
31
711.2978580000000200
2
PT#
70
0
0
ATTRIB
8
PNTELEV
10
610421.4854144060500000
20
7529710.1720816875000000
30
711.2978580000000200
40
0.1500000000000000
1
711.30
50
45.0000000000000000
7
PTXT
2
ELEV2
70
0
0
ATTRIB
8
PNTDESC
10
610421.2604144060800000
20
7529709.9845816875000000
30
711.2978580000000200
40
0.1500000000000000
1
CERCA
7
PTXT
72
1
11
610421.2604144060800000
21
7529709.9845816875000000
31
711.2978580000000200
2
DESC2
70
0
0
SEQEND
8
PNTS
0
POINT
8
PNTS
10
610421.2604144060800000
20
7529710.2470816877000000
30
711.2978580000000200
1001
PNTNO
1000
33
1070
1
0
INSERT
8
PNTS
2
SPT0
10
610425.5691980788300000
20
7529716.5443531284000000
30
712.2003040000000700
41
0.1500000000000000
42
0.1500000000000000
43
0.1500000000000000
1001
SPT
1070
1
1001
PNTNO
1000
34
1070
1
0
INSERT
8
PNTS
66
1
2
SRVPNO3
10
610425.5691980788300000
20
7529716.5443531284000000
30
712.2003040000000700
41
0.1500000000000000
42
0.1500000000000000
43
0.1500000000000000
1001
PNTNO
1000
34
1070
1
0
ATTRIB
8
PNTNO
10
610425.5691980788300000
20
7529716.6568531282000000
30
712.2003040000000700
40
0.1500000000000000
1
34
7
PTXT
72
1
11
610425.5691980788300000
21
7529716.6568531282000000
31
712.2003040000000700
2
PT#
70
0
0
ATTRIB
8
PNTELEV
10
610425.7941980788000000
20
7529716.4693531282000000
30
712.2003040000000700
40
0.1500000000000000
1
712.20
50
45.0000000000000000
7
PTXT
2
ELEV2
70
0
0
ATTRIB
8
PNTDESC
10
610425.5691980788300000
20
7529716.2818531282000000
30
712.2003040000000700
40
0.1500000000000000
1
CERCA
7
PTXT
72
1
11
610425.5691980788300000
21
7529716.2818531282000000
31
712.2003040000000700
2
DESC2
70
0
0
SEQEND
8
PNTS
0
POINT
8
PNTS
10
610425.5691980788300000
20
7529716.5443531284000000
30
712.2003040000000700
1001
PNTNO
1000
34
1070
1
0
INSERT
8
PNTS
2
SPT0
10
610428.3672095787500000
20
7529724.5862969430000000
30
712.6206960000000700
41
0.1500000000000000
42
0.1500000000000000
43
0.1500000000000000
1001
SPT
1070
1
1001
PNTNO
1000
35
1070
1
0
INSERT
8
PNTS
66
1
2
SRVPNO3
10
610428.3672095787500000
20
7529724.5862969430000000
30
712.6206960000000700
41
0.1500000000000000
42
0.1500000000000000
43
0.1500000000000000
1001
PNTNO
1000
35
1070
1
0
ATTRIB
8
PNTNO
10
610428.3672095787500000
20
7529724.6987969428000000
30
712.6206960000000700
40
0.1500000000000000
1
35
7
PTXT
72
1
11
610428.3672095787500000
21
7529724.6987969428000000
31
712.6206960000000700
2
PT#
70
0
0
ATTRIB
8
PNTELEV
10
610428.5922095787200000
20
7529724.5112969428000000
30
712.6206960000000700
40
0.1500000000000000
1
712.62
50
45.0000000000000000
7
PTXT
2
ELEV2
70
0
0
ATTRIB
8
PNTDESC
10
610428.3672095787500000
20
7529724.3237969428000000
30
712.6206960000000700
40
0.1500000000000000
1
CERCA
7
PTXT
72
1
11
610428.3672095787500000
21
7529724.3237969428000000
31
712.6206960000000700
2
DESC2
70
0
0
SEQEND
8
PNTS
0
POINT
8
PNTS
10
610428.3672095787500000
20
7529724.5862969430000000
30
712.6206960000000700
1001
PNTNO
1000
35
1070
1
0
INSERT
8
PNTS
2
SPT0
10
610429.2636253385600000
20
7529738.4875864377000000
30
714.2257640000000300
41
0.1500000000000000
42
0.1500000000000000
43
0.1500000000000000
1001
SPT
1070
1
1001
PNTNO
1000
36
1070
1
0
INSERT
8
PNTS
66
1
2
SRVPNO3
10
610429.2636253385600000
20
7529738.4875864377000000
30
714.2257640000000300
41
0.1500000000000000
42
0.1500000000000000
43
0.1500000000000000
1001
PNTNO
1000
36
1070
1
0
ATTRIB
8
PNTNO
10
610429.2636253385600000
20
7529738.6000864375000000
30
714.2257640000000300
40
0.1500000000000000
1
36
7
PTXT
72
1
11
610429.2636253385600000
21
7529738.6000864375000000
31
714.2257640000000300
2
PT#
70
0
0
ATTRIB
8
PNTELEV
10
610429.4886253385300000
20
7529738.4125864375000000
30
714.2257640000000300
40
0.1500000000000000
1
714.23
50
45.0000000000000000
7
PTXT
2
ELEV2
70
0
0
ATTRIB
8
PNTDESC
10
610429.2636253385600000
20
7529738.2250864375000000
30
714.2257640000000300
40
0.1500000000000000
1
CERCA
7
PTXT
72
1
11
610429.2636253385600000
21
7529738.2250864375000000
31
714.2257640000000300
2
DESC2
70
0
0
SEQEND
8
PNTS
0
POINT
8
PNTS
10
610429.2636253385600000
20
7529738.4875864377000000
30
714.2257640000000300
1001
PNTNO
1000
36
1070
1
0
INSERT
8
PNTS
2
SPT0
10
610431.2236144382000000
20
7529744.3907607524000000
30
714.3797040000000600
41
0.1500000000000000
42
0.1500000000000000
43
0.1500000000000000
1001
SPT
1070
1
1001
PNTNO
1000
37
1070
1
0
INSERT
8
PNTS
66
1
2
SRVPNO3
10
610431.2236144382000000
20
7529744.3907607524000000
30
714.3797040000000600
41
0.1500000000000000
42
0.1500000000000000
43
0.1500000000000000
1001
PNTNO
1000
37
1070
1
0
ATTRIB
8
PNTNO
10
610431.2236144382000000
20
7529744.5032607522000000
30
714.3797040000000600
40
0.1500000000000000
1
37
7
PTXT
72
1
11
610431.2236144382000000
21
7529744.5032607522000000
31
714.3797040000000600
2
PT#
70
0
0
ATTRIB
8
PNTELEV
10
610431.4486144381800000
20
7529744.3157607522000000
30
714.3797040000000600
40
0.1500000000000000
1
714.38
50
45.0000000000000000
7
PTXT
2
ELEV2
70
0
0
ATTRIB
8
PNTDESC
10
610431.2236144382000000
20
7529744.1282607522000000
30
714.3797040000000600
40
0.1500000000000000
1
CERCA
7
PTXT
72
1
11
610431.2236144382000000
21
7529744.1282607522000000
31
714.3797040000000600
2
DESC2
70
0
0
SEQEND
8
PNTS
0
POINT
8
PNTS
10
610431.2236144382000000
20
7529744.3907607524000000
30
714.3797040000000600
1001
PNTNO
1000
37
1070
1
0
INSERT
8
PNTS
2
SPT0
10
610444.0545710220500000
20
7529746.2543150885000000
30
717.1484370000000600
41
0.1500000000000000
42
0.1500000000000000
43
0.1500000000000000
1001
SPT
1070
1
1001
PNTNO
1000
38
1070
1
0
INSERT
8
PNTS
66
1
2
SRVPNO3
10
610444.0545710220500000
20
7529746.2543150885000000
30
717.1484370000000600
41
0.1500000000000000
42
0.1500000000000000
43
0.1500000000000000
1001
PNTNO
1000
38
1070
1
0
ATTRIB
8
PNTNO
10
610444.0545710220500000
20
7529746.3668150883000000
30
717.1484370000000600
40
0.1500000000000000
1
38
7
PTXT
72
1
11
610444.0545710220500000
21
7529746.3668150883000000
31
717.1484370000000600
2
PT#
70
0
0
ATTRIB
8
PNTELEV
10
610444.2795710220200000
20
7529746.1793150883000000
30
717.1484370000000600
40
0.1500000000000000
1
717.15
50
45.0000000000000000
7
PTXT
2
ELEV2
70
0
0
ATTRIB
8
PNTDESC
10
610444.0545710220500000
20
7529745.9918150883000000
30
717.1484370000000600
40
0.1500000000000000
1
CERCA
7
PTXT
72
1
11
610444.0545710220500000
21
7529745.9918150883000000
31
717.1484370000000600
2
DESC2
70
0
0
SEQEND
8
PNTS
0
POINT
8
PNTS
10
610444.0545710220500000
20
7529746.2543150885000000
30
717.1484370000000600
1001
PNTNO
1000
38
1070
1
0
INSERT
8
PNTS
2
SPT0
10
610470.9319533087500000
20
7529747.4166451171000000
30
716.9994560000000100
41
0.1500000000000000
42
0.1500000000000000
43
0.1500000000000000
1001
SPT
1070
1
1001
PNTNO
1000
39
1070
1
0
INSERT
8
PNTS
66
1
2
SRVPNO3
10
610470.9319533087500000
20
7529747.4166451171000000
30
716.9994560000000100
41
0.1500000000000000
42
0.1500000000000000
43
0.1500000000000000
1001
PNTNO
1000
39
1070
1
0
ATTRIB
8
PNTNO
10
610470.9319533087500000
20
7529747.5291451169000000
30
716.9994560000000100
40
0.1500000000000000
1
39
7
PTXT
72
1
11
610470.9319533087500000
21
7529747.5291451169000000
31
716.9994560000000100
2
PT#
70
0
0
ATTRIB
8
PNTELEV
10
610471.1569533087300000
20
7529747.3416451169000000
30
716.9994560000000100
40
0.1500000000000000
1
717.00
50
45.0000000000000000
7
PTXT
2
ELEV2
70
0
0
ATTRIB
8
PNTDESC
10
610470.9319533087500000
20
7529747.1541451169000000
30
716.9994560000000100
40
0.1500000000000000
1
CERCA
7
PTXT
72
1
11
610470.9319533087500000
21
7529747.1541451169000000
31
716.9994560000000100
2
DESC2
70
0
0
SEQEND
8
PNTS
0
POINT
8
PNTS
10
610470.9319533087500000
20
7529747.4166451171000000
30
716.9994560000000100
1001
PNTNO
1000
39
1070
1
0
INSERT
8
PNTS
2
SPT0
10
610503.9182714500900000
20
7529748.5692076720000000
30
700.2839330000000500
41
0.1500000000000000
42
0.1500000000000000
43
0.1500000000000000
1001
SPT
1070
1
1001
PNTNO
1000
40
1070
1
0
INSERT
8
PNTS
66
1
2
SRVPNO3
10
610503.9182714500900000
20
7529748.5692076720000000
30
700.2839330000000500
41
0.1500000000000000
42
0.1500000000000000
43
0.1500000000000000
1001
PNTNO
1000
40
1070
1
0
ATTRIB
8
PNTNO
10
610503.9182714500900000
20
7529748.6817076718000000
30
700.2839330000000500
40
0.1500000000000000
1
40
7
PTXT
72
1
11
610503.9182714500900000
21
7529748.6817076718000000
31
700.2839330000000500
2
PT#
70
0
0
ATTRIB
8
PNTELEV
10
610504.1432714500700000
20
7529748.4942076718000000
30
700.2839330000000500
40
0.1500000000000000
1
700.28
50
45.0000000000000000
7
PTXT
2
ELEV2
70
0
0
ATTRIB
8
PNTDESC
10
610503.9182714500900000
20
7529748.3067076718000000
30
700.2839330000000500
40
0.1500000000000000
1
CERCA
7
PTXT
72
1
11
610503.9182714500900000
21
7529748.3067076718000000
31
700.2839330000000500
2
DESC2
70
0
0
SEQEND
8
PNTS
0
POINT
8
PNTS
10
610503.9182714500900000
20
7529748.5692076720000000
30
700.2839330000000500
1001
PNTNO
1000
40
1070
1
0
INSERT
8
PNTS
2
SPT0
10
610568.5124231583900000
20
7529770.3079135520000000
30
718.0082980000000800
41
0.1500000000000000
42
0.1500000000000000
43
0.1500000000000000
1001
SPT
1070
1
1001
PNTNO
1000
41
1070
1
0
INSERT
8
PNTS
66
1
2
SRVPNO3
10
610568.5124231583900000
20
7529770.3079135520000000
30
718.0082980000000800
41
0.1500000000000000
42
0.1500000000000000
43
0.1500000000000000
1001
PNTNO
1000
41
1070
1
0
ATTRIB
8
PNTNO
10
610568.5124231583900000
20
7529770.4204135519000000
30
718.0082980000000800
40
0.1500000000000000
1
41
7
PTXT
72
1
11
610568.5124231583900000
21
7529770.4204135519000000
31
718.0082980000000800
2
PT#
70
0
0
ATTRIB
8
PNTELEV
10
610568.7374231583700000
20
7529770.2329135519000000
30
718.0082980000000800
40
0.1500000000000000
1
718.01
50
45.0000000000000000
7
PTXT
2
ELEV2
70
0
0
ATTRIB
8
PNTDESC
10
610568.5124231583900000
20
7529770.0454135519000000
30
718.0082980000000800
40
0.1500000000000000
1
CERCA
7
PTXT
72
1
11
610568.5124231583900000
21
7529770.0454135519000000
31
718.0082980000000800
2
DESC2
70
0
0
SEQEND
8
PNTS
0
POINT
8
PNTS
10
610568.5124231583900000
20
7529770.3079135520000000
30
718.0082980000000800
1001
PNTNO
1000
41
1070
1
0
INSERT
8
PNTS
2
SPT0
10
610589.6920399747300000
20
7529776.3211284662000000
30
725.7604939999999900
41
0.1500000000000000
42
0.1500000000000000
43
0.1500000000000000
1001
SPT
1070
1
1001
PNTNO
1000
42
1070
1
0
INSERT
8
PNTS
66
1
2
SRVPNO3
10
610589.6920399747300000
20
7529776.3211284662000000
30
725.7604939999999900
41
0.1500000000000000
42
0.1500000000000000
43
0.1500000000000000
1001
PNTNO
1000
42
1070
1
0
ATTRIB
8
PNTNO
10
610589.6920399747300000
20
7529776.4336284660000000
30
725.7604939999999900
40
0.1500000000000000
1
42
7
PTXT
72
1
11
610589.6920399747300000
21
7529776.4336284660000000
31
725.7604939999999900
2
PT#
70
0
0
ATTRIB
8
PNTELEV
10
610589.9170399747100000
20
7529776.2461284660000000
30
725.7604939999999900
40
0.1500000000000000
1
725.76
50
45.0000000000000000
7
PTXT
2
ELEV2
70
0
0
ATTRIB
8
PNTDESC
10
610589.6920399747300000
20
7529776.0586284660000000
30
725.7604939999999900
40
0.1500000000000000
1
CERCA
7
PTXT
72
1
11
610589.6920399747300000
21
7529776.0586284660000000
31
725.7604939999999900
2
DESC2
70
0
0
SEQEND
8
PNTS
0
POINT
8
PNTS
10
610589.6920399747300000
20
7529776.3211284662000000
30
725.7604939999999900
1001
PNTNO
1000
42
1070
1
0
INSERT
8
PNTS
2
SPT0
10
610619.3806578093200000
20
7529787.3411889262000000
30
733.1981769999999900
41
0.1500000000000000
42
0.1500000000000000
43
0.1500000000000000
1001
SPT
1070
1
1001
PNTNO
1000
43
1070
1
0
INSERT
8
PNTS
66
1
2
SRVPNO3
10
610619.3806578093200000
20
7529787.3411889262000000
30
733.1981769999999900
41
0.1500000000000000
42
0.1500000000000000
43
0.1500000000000000
1001
PNTNO
1000
43
1070
1
0
ATTRIB
8
PNTNO
10
610619.3806578093200000
20
7529787.4536889261000000
30
733.1981769999999900
40
0.1500000000000000
1
43
7
PTXT
72
1
11
610619.3806578093200000
21
7529787.4536889261000000
31
733.1981769999999900
2
PT#
70
0
0
ATTRIB
8
PNTELEV
10
610619.6056578093000000
20
7529787.2661889261000000
30
733.1981769999999900
40
0.1500000000000000
1
733.20
50
45.0000000000000000
7
PTXT
2
ELEV2
70
0
0
ATTRIB
8
PNTDESC
10
610619.3806578093200000
20
7529787.0786889261000000
30
733.1981769999999900
40
0.1500000000000000
1
CERCA
7
PTXT
72
1
11
610619.3806578093200000
21
7529787.0786889261000000
31
733.1981769999999900
2
DESC2
70
0
0
SEQEND
8
PNTS
0
POINT
8
PNTS
10
610619.3806578093200000
20
7529787.3411889262000000
30
733.1981769999999900
1001
PNTNO
1000
43
1070
1
0
INSERT
8
PNTS
2
SPT0
10
610664.2441029297200000
20
7529806.4963592803000000
30
738.8544900000000600
41
0.1500000000000000
42
0.1500000000000000
43
0.1500000000000000
1001
SPT
1070
1
1001
PNTNO
1000
44
1070
1
0
INSERT
8
PNTS
66
1
2
SRVPNO3
10
610664.2441029297200000
20
7529806.4963592803000000
30
738.8544900000000600
41
0.1500000000000000
42
0.1500000000000000
43
0.1500000000000000
1001
PNTNO
1000
44
1070
1
0
ATTRIB
8
PNTNO
10
610664.2441029297200000
20
7529806.6088592801000000
30
738.8544900000000600
40
0.1500000000000000
1
44
7
PTXT
72
1
11
610664.2441029297200000
21
7529806.6088592801000000
31
738.8544900000000600
2
PT#
70
0
0
ATTRIB
8
PNTELEV
10
610664.4691029297000000
20
7529806.4213592801000000
30
738.8544900000000600
40
0.1500000000000000
1
738.85
50
45.0000000000000000
7
PTXT
2
ELEV2
70
0
0
ATTRIB
8
PNTDESC
10
610664.2441029297200000
20
7529806.2338592801000000
30
738.8544900000000600
40
0.1500000000000000
1
CERCA
7
PTXT
72
1
11
610664.2441029297200000
21
7529806.2338592801000000
31
738.8544900000000600
2
DESC2
70
0
0
SEQEND
8
PNTS
0
POINT
8
PNTS
10
610664.2441029297200000
20
7529806.4963592803000000
30
738.8544900000000600
1001
PNTNO
1000
44
1070
1
0
INSERT
8
PNTS
2
SPT0
10
610668.1742472971100000
20
7529849.4435080010000000
30
733.0246170000000300
41
0.1500000000000000
42
0.1500000000000000
43
0.1500000000000000
1001
SPT
1070
1
1001
PNTNO
1000
45
1070
1
0
INSERT
8
PNTS
66
1
2
SRVPNO3
10
610668.1742472971100000
20
7529849.4435080010000000
30
733.0246170000000300
41
0.1500000000000000
42
0.1500000000000000
43
0.1500000000000000
1001
PNTNO
1000
45
1070
1
0
ATTRIB
8
PNTNO
10
610668.1742472971100000
20
7529849.5560080009000000
30
733.0246170000000300
40
0.1500000000000000
1
45
7
PTXT
72
1
11
610668.1742472971100000
21
7529849.5560080009000000
31
733.0246170000000300
2
PT#
70
0
0
ATTRIB
8
PNTELEV
10
610668.3992472970900000
20
7529849.3685080009000000
30
733.0246170000000300
40
0.1500000000000000
1
733.02
50
45.0000000000000000
7
PTXT
2
ELEV2
70
0
0
ATTRIB
8
PNTDESC
10
610668.1742472971100000
20
7529849.1810080009000000
30
733.0246170000000300
40
0.1500000000000000
1
CERCA
7
PTXT
72
1
11
610668.1742472971100000
21
7529849.1810080009000000
31
733.0246170000000300
2
DESC2
70
0
0
SEQEND
8
PNTS
0
POINT
8
PNTS
10
610668.1742472971100000
20
7529849.4435080010000000
30
733.0246170000000300
1001
PNTNO
1000
45
1070
1
0
INSERT
8
PNTS
2
SPT0
10
610668.6945995241400000
20
7529852.0026375288000000
30
732.7826900000000000
41
0.1500000000000000
42
0.1500000000000000
43
0.1500000000000000
1001
SPT
1070
1
1001
PNTNO
1000
46
1070
1
0
INSERT
8
PNTS
66
1
2
SRVPNO3
10
610668.6945995241400000
20
7529852.0026375288000000
30
732.7826900000000000
41
0.1500000000000000
42
0.1500000000000000
43
0.1500000000000000
1001
PNTNO
1000
46
1070
1
0
ATTRIB
8
PNTNO
10
610668.6945995241400000
20
7529852.1151375286000000
30
732.7826900000000000
40
0.1500000000000000
1
46
7
PTXT
72
1
11
610668.6945995241400000
21
7529852.1151375286000000
31
732.7826900000000000
2
PT#
70
0
0
ATTRIB
8
PNTELEV
10
610668.9195995241200000
20
7529851.9276375286000000
30
732.7826900000000000
40
0.1500000000000000
1
732.78
50
45.0000000000000000
7
PTXT
2
ELEV2
70
0
0
ATTRIB
8
PNTDESC
10
610668.6945995241400000
20
7529851.7401375286000000
30
732.7826900000000000
40
0.1500000000000000
1
CERCA
7
PTXT
72
1
11
610668.6945995241400000
21
7529851.7401375286000000
31
732.7826900000000000
2
DESC2
70
0
0
SEQEND
8
PNTS
0
POINT
8
PNTS
10
610668.6945995241400000
20
7529852.0026375288000000
30
732.7826900000000000
1001
PNTNO
1000
46
1070
1
0
INSERT
8
PNTS
2
SPT0
10
610693.1980493324800000
20
7529910.9048411520000000
30
728.1849700000000200
41
0.1500000000000000
42
0.1500000000000000
43
0.1500000000000000
1001
SPT
1070
1
1001
PNTNO
1000
47
1070
1
0
INSERT
8
PNTS
66
1
2
SRVPNO3
10
610693.1980493324800000
20
7529910.9048411520000000
30
728.1849700000000200
41
0.1500000000000000
42
0.1500000000000000
43
0.1500000000000000
1001
PNTNO
1000
47
1070
1
0
ATTRIB
8
PNTNO
10
610693.1980493324800000
20
7529911.0173411518000000
30
728.1849700000000200
40
0.1500000000000000
1
47
7
PTXT
72
1
11
610693.1980493324800000
21
7529911.0173411518000000
31
728.1849700000000200
2
PT#
70
0
0
ATTRIB
8
PNTELEV
10
610693.4230493324600000
20
7529910.8298411518000000
30
728.1849700000000200
40
0.1500000000000000
1
728.18
50
45.0000000000000000
7
PTXT
2
ELEV2
70
0
0
ATTRIB
8
PNTDESC
10
610693.1980493324800000
20
7529910.6423411518000000
30
728.1849700000000200
40
0.1500000000000000
1
INXX0230
7
PTXT
72
1
11
610693.1980493324800000
21
7529910.6423411518000000
31
728.1849700000000200
2
DESC2
70
0
0
SEQEND
8
PNTS
0
POINT
8
PNTS
10
610693.1980493324800000
20
7529910.9048411520000000
30
728.1849700000000200
1001
PNTNO
1000
47
1070
1
0
INSERT
8
PNTS
2
SPT0
10
610889.4355120393400000
20
7529889.9903539894000000
30
735.1445340000000200
41
0.1500000000000000
42
0.1500000000000000
43
0.1500000000000000
1001
SPT
1070
1
1001
PNTNO
1000
48
1070
1
0
INSERT
8
PNTS
66
1
2
SRVPNO3
10
610889.4355120393400000
20
7529889.9903539894000000
30
735.1445340000000200
41
0.1500000000000000
42
0.1500000000000000
43
0.1500000000000000
1001
PNTNO
1000
48
1070
1
0
ATTRIB
8
PNTNO
10
610889.4355120393400000
20
7529890.1028539892000000
30
735.1445340000000200
40
0.1500000000000000
1
48
7
PTXT
72
1
11
610889.4355120393400000
21
7529890.1028539892000000
31
735.1445340000000200
2
PT#
70
0
0
ATTRIB
8
PNTELEV
10
610889.6605120393200000
20
7529889.9153539892000000
30
735.1445340000000200
40
0.1500000000000000
1
735.14
50
45.0000000000000000
7
PTXT
2
ELEV2
70
0
0
ATTRIB
8
PNTDESC
10
610889.4355120393400000
20
7529889.7278539892000000
30
735.1445340000000200
40
0.1500000000000000
1
CERCA
7
PTXT
72
1
11
610889.4355120393400000
21
7529889.7278539892000000
31
735.1445340000000200
2
DESC2
70
0
0
SEQEND
8
PNTS
0
POINT
8
PNTS
10
610889.4355120393400000
20
7529889.9903539894000000
30
735.1445340000000200
1001
PNTNO
1000
48
1070
1
0
INSERT
8
PNTS
2
SPT0
10
611027.7058836214700000
20
7529874.8286188105000000
30
741.6018420000000300
41
0.1500000000000000
42
0.1500000000000000
43
0.1500000000000000
1001
SPT
1070
1
1001
PNTNO
1000
49
1070
1
0
INSERT
8
PNTS
66
1
2
SRVPNO3
10
611027.7058836214700000
20
7529874.8286188105000000
30
741.6018420000000300
41
0.1500000000000000
42
0.1500000000000000
43
0.1500000000000000
1001
PNTNO
1000
49
1070
1
0
ATTRIB
8
PNTNO
10
611027.7058836214700000
20
7529874.9411188103000000
30
741.6018420000000300
40
0.1500000000000000
1
49
7
PTXT
72
1
11
611027.7058836214700000
21
7529874.9411188103000000
31
741.6018420000000300
2
PT#
70
0
0
ATTRIB
8
PNTELEV
10
611027.9308836214500000
20
7529874.7536188103000000
30
741.6018420000000300
40
0.1500000000000000
1
741.60
50
45.0000000000000000
7
PTXT
2
ELEV2
70
0
0
ATTRIB
8
PNTDESC
10
611027.7058836214700000
20
7529874.5661188103000000
30
741.6018420000000300
40
0.1500000000000000
1
INXX0231
7
PTXT
72
1
11
611027.7058836214700000
21
7529874.5661188103000000
31
741.6018420000000300
2
DESC2
70
0
0
SEQEND
8
PNTS
0
POINT
8
PNTS
10
611027.7058836214700000
20
7529874.8286188105000000
30
741.6018420000000300
1001
PNTNO
1000
49
1070
1
0
INSERT
8
PNTS
2
SPT0
10
611052.7141906998600000
20
7529820.6802589381000000
30
770.6153600000000100
41
0.1500000000000000
42
0.1500000000000000
43
0.1500000000000000
1001
SPT
1070
1
1001
PNTNO
1000
50
1070
1
0
INSERT
8
PNTS
66
1
2
SRVPNO3
10
611052.7141906998600000
20
7529820.6802589381000000
30
770.6153600000000100
41
0.1500000000000000
42
0.1500000000000000
43
0.1500000000000000
1001
PNTNO
1000
50
1070
1
0
ATTRIB
8
PNTNO
10
611052.7141906998600000
20
7529820.7927589379000000
30
770.6153600000000100
40
0.1500000000000000
1
50
7
PTXT
72
1
11
611052.7141906998600000
21
7529820.7927589379000000
31
770.6153600000000100
2
PT#
70
0
0
ATTRIB
8
PNTELEV
10
611052.9391906998400000
20
7529820.6052589379000000
30
770.6153600000000100
40
0.1500000000000000
1
770.62
50
45.0000000000000000
7
PTXT
2
ELEV2
70
0
0
ATTRIB
8
PNTDESC
10
611052.7141906998600000
20
7529820.4177589379000000
30
770.6153600000000100
40
0.1500000000000000
1
CERCA
7
PTXT
72
1
11
611052.7141906998600000
21
7529820.4177589379000000
31
770.6153600000000100
2
DESC2
70
0
0
SEQEND
8
PNTS
0
POINT
8
PNTS
10
611052.7141906998600000
20
7529820.6802589381000000
30
770.6153600000000100
1001
PNTNO
1000
50
1070
1
0
INSERT
8
PNTS
2
SPT0
10
611247.8437650821900000
20
7529613.4260520069000000
30
640.0785630000000300
41
0.1500000000000000
42
0.1500000000000000
43
0.1500000000000000
1001
SPT
1070
1
1001
PNTNO
1000
51
1070
1
0
INSERT
8
PNTS
66
1
2
SRVPNO3
10
611247.8437650821900000
20
7529613.4260520069000000
30
640.0785630000000300
41
0.1500000000000000
42
0.1500000000000000
43
0.1500000000000000
1001
PNTNO
1000
51
1070
1
0
ATTRIB
8
PNTNO
10
611247.8437650821900000
20
7529613.5385520067000000
30
640.0785630000000300
40
0.1500000000000000
1
51
7
PTXT
72
1
11
611247.8437650821900000
21
7529613.5385520067000000
31
640.0785630000000300
2
PT#
70
0
0
ATTRIB
8
PNTELEV
10
611248.0687650821600000
20
7529613.3510520067000000
30
640.0785630000000300
40
0.1500000000000000
1
640.08
50
45.0000000000000000
7
PTXT
2
ELEV2
70
0
0
ATTRIB
8
PNTDESC
10
611247.8437650821900000
20
7529613.1635520067000000
30
640.0785630000000300
40
0.1500000000000000
1
INXX0232
7
PTXT
72
1
11
611247.8437650821900000
21
7529613.1635520067000000
31
640.0785630000000300
2
DESC2
70
0
0
SEQEND
8
PNTS
0
POINT
8
PNTS
10
611247.8437650821900000
20
7529613.4260520069000000
30
640.0785630000000300
1001
PNTNO
1000
51
1070
1
0
INSERT
8
PNTS
2
SPT0
10
611389.6626970925100000
20
7529388.6896242509000000
30
695.4579180000000600
41
0.1500000000000000
42
0.1500000000000000
43
0.1500000000000000
1001
SPT
1070
1
1001
PNTNO
1000
52
1070
1
0
INSERT
8
PNTS
66
1
2
SRVPNO3
10
611389.6626970925100000
20
7529388.6896242509000000
30
695.4579180000000600
41
0.1500000000000000
42
0.1500000000000000
43
0.1500000000000000
1001
PNTNO
1000
52
1070
1
0
ATTRIB
8
PNTNO
10
611389.6626970925100000
20
7529388.8021242507000000
30
695.4579180000000600
40
0.1500000000000000
1
52
7
PTXT
72
1
11
611389.6626970925100000
21
7529388.8021242507000000
31
695.4579180000000600
2
PT#
70
0
0
ATTRIB
8
PNTELEV
10
611389.8876970924900000
20
7529388.6146242507000000
30
695.4579180000000600
40
0.1500000000000000
1
695.46
50
45.0000000000000000
7
PTXT
2
ELEV2
70
0
0
ATTRIB
8
PNTDESC
10
611389.6626970925100000
20
7529388.4271242507000000
30
695.4579180000000600
40
0.1500000000000000
1
INXX0247
7
PTXT
72
1
11
611389.6626970925100000
21
7529388.4271242507000000
31
695.4579180000000600
2
DESC2
70
0
0
SEQEND
8
PNTS
0
POINT
8
PNTS
10
611389.6626970925100000
20
7529388.6896242509000000
30
695.4579180000000600
1001
PNTNO
1000
52
1070
1
0
INSERT
8
PNTS
2
SPT0
10
611390.3483218296900000
20
7529388.4580870988000000
30
694.9512980000000700
41
0.1500000000000000
42
0.1500000000000000
43
0.1500000000000000
1001
SPT
1070
1
1001
PNTNO
1000
53
1070
1
0
INSERT
8
PNTS
66
1
2
SRVPNO3
10
611390.3483218296900000
20
7529388.4580870988000000
30
694.9512980000000700
41
0.1500000000000000
42
0.1500000000000000
43
0.1500000000000000
1001
PNTNO
1000
53
1070
1
0
ATTRIB
8
PNTNO
10
611390.3483218296900000
20
7529388.5705870986000000
30
694.9512980000000700
40
0.1500000000000000
1
53
7
PTXT
72
1
11
611390.3483218296900000
21
7529388.5705870986000000
31
694.9512980000000700
2
PT#
70
0
0
ATTRIB
8
PNTELEV
10
611390.5733218296700000
20
7529388.3830870986000000
30
694.9512980000000700
40
0.1500000000000000
1
694.95
50
45.0000000000000000
7
PTXT
2
ELEV2
70
0
0
ATTRIB
8
PNTDESC
10
611390.3483218296900000
20
7529388.1955870986000000
30
694.9512980000000700
40
0.1500000000000000
1
INXX0247
7
PTXT
72
1
11
611390.3483218296900000
21
7529388.1955870986000000
31
694.9512980000000700
2
DESC2
70
0
0
SEQEND
8
PNTS
0
POINT
8
PNTS
10
611390.3483218296900000
20
7529388.4580870988000000
30
694.9512980000000700
1001
PNTNO
1000
53
1070
1
0
INSERT
8
PNTS
2
SPT0
10
610258.7249999999800000
20
7529157.7309999997000000
30
806.4900000000000100
41
0.1500000000000000
42
0.1500000000000000
43
0.1500000000000000
1001
SPT
1070
1
1001
PNTNO
1000
54
1070
1
0
INSERT
8
PNTS
66
1
2
SRVPNO3
10
610258.7249999999800000
20
7529157.7309999997000000
30
806.4900000000000100
41
0.1500000000000000
42
0.1500000000000000
43
0.1500000000000000
1001
PNTNO
1000
54
1070
1
0
ATTRIB
8
PNTNO
10
610258.7249999999800000
20
7529157.8434999995000000
30
806.4900000000000100
40
0.1500000000000000
1
54
7
PTXT
72
1
11
610258.7249999999800000
21
7529157.8434999995000000
31
806.4900000000000100
2
PT#
70
0
0
ATTRIB
8
PNTELEV
10
610258.9499999999500000
20
7529157.6559999995000000
30
806.4900000000000100
40
0.1500000000000000
1
806.49
50
45.0000000000000000
7
PTXT
2
ELEV2
70
0
0
ATTRIB
8
PNTDESC
10
610258.7249999999800000
20
7529157.4684999995000000
30
806.4900000000000100
40
0.1500000000000000
1
GEO
7
PTXT
72
1
11
610258.7249999999800000
21
7529157.4684999995000000
31
806.4900000000000100
2
DESC2
70
0
0
SEQEND
8
PNTS
0
POINT
8
PNTS
10
610258.7249999999800000
20
7529157.7309999997000000
30
806.4900000000000100
1001
PNTNO
1000
54
1070
1
0
ENDSEC
0
EOF
