999
DXF created by Inkscape
  0
SECTION
  2
HEADER
  9
$ACADVER
  1
AC1014
  9
$HANDSEED
  5
FFFF
  9
$MEASUREMENT
 70
     1
  0
ENDSEC
  0
SECTION
  2
TABLES
  0
TABLE
  2
VPORT
  5
8
330
0
100
AcDbSymbolTable
 70
     4
  0
VPORT
  5
2E
330
8
100
AcDbSymbolTableRecord
100
AcDbViewportTableRecord
  2
*ACTIVE
 70
     0
 10
0.0
 20
0.0
 11
1.0
 21
1.0
 12
210.0
 22
148.5
 13
0.0
 23
0.0
 14
10.0
 24
10.0
 15
10.0
 25
10.0
 16
0.0
 26
0.0
 36
1.0
 17
0.0
 27
0.0
 37
0.0
 40
341.0
 41
1.24
 42
50.0
 43
0.0
 44
0.0
 50
0.0
 51
0.0
 71
     0
 72
   100
 73
     1
 74
     3
 75
     0
 76
     0
 77
     0
 78
     0
  0
ENDTAB
  0
TABLE
  2
LTYPE
  5
5
330
0
100
AcDbSymbolTable
 70
     1
  0
LTYPE
  5
14
330
5
100
AcDbSymbolTableRecord
100
AcDbLinetypeTableRecord
  2
BYBLOCK
 70
     0
  3

 72
    65
 73
     0
 40
0.0
  0
LTYPE
  5
15
330
5
100
AcDbSymbolTableRecord
100
AcDbLinetypeTableRecord
  2
BYLAYER
 70
     0
  3

 72
    65
 73
     0
 40
0.0
  0
LTYPE
  5
16
330
5
100
AcDbSymbolTableRecord
100
AcDbLinetypeTableRecord
  2
CONTINUOUS
 70
     0
  3
Solid line
 72
    65
 73
     0
 40
0.0
  0
ENDTAB
  0
TABLE
  2
LAYER
  5
2
100
AcDbSymbolTable
 70
2
  0
LAYER
  5
50
100
AcDbSymbolTableRecord
100
AcDbLayerTableRecord
  2
0
 70
0
  6
CONTINUOUS
  0
LAYER
  5
51
100
AcDbSymbolTableRecord
100
AcDbLayerTableRecord
  2
Layer_1
 70
0
  6
CONTINUOUS
  0
ENDTAB
  0
TABLE
  2
STYLE
  5
3
330
0
100
AcDbSymbolTable
 70
     1
  0
STYLE
  5
11
330
3
100
AcDbSymbolTableRecord
100
AcDbTextStyleTableRecord
  2
STANDARD
 70
     0
 40
0.0
 41
1.0
 50
0.0
 71
     0
 42
2.5
  3
txt
  4

  0
ENDTAB
  0
TABLE
  2
VIEW
  5
6
330
0
100
AcDbSymbolTable
 70
     0
  0
ENDTAB
  0
TABLE
  2
UCS
  5
7
330
0
100
AcDbSymbolTable
 70
     0
  0
ENDTAB
  0
TABLE
  2
APPID
  5
9
330
0
100
AcDbSymbolTable
 70
     2
  0
APPID
  5
12
330
9
100
AcDbSymbolTableRecord
100
AcDbRegAppTableRecord
  2
ACAD
 70
     0
  0
ENDTAB
  0
TABLE
  2
DIMSTYLE
  5
A
330
0
100
AcDbSymbolTable
 70
     1
  0
DIMSTYLE
105
27
330
A
100
AcDbSymbolTableRecord
100
AcDbDimStyleTableRecord
  2
ISO-25
 70
     0
  3

  4

  5

  6

  7

 40
1.0
 41
2.5
 42
0.625
 43
3.75
 44
1.25
 45
0.0
 46
0.0
 47
0.0
 48
0.0
140
2.5
141
2.5
142
0.0
143
0.03937007874016
144
1.0
145
0.0
146
1.0
147
0.625
 71
     0
 72
     0
 73
     0
 74
     0
 75
     0
 76
     0
 77
     1
 78
     8
170
     0
171
     3
172
     1
173
     0
174
     0
175
     0
176
     0
177
     0
178
     0
270
     2
271
     2
272
     2
273
     2
274
     3
340
11
275
     0
280
     0
281
     0
282
     0
283
     0
284
     8
285
     0
286
     0
287
     3
288
     0
  0
ENDTAB
  0
TABLE
  2
BLOCK_RECORD
  5
1
330
0
100
AcDbSymbolTable
 70
     1
  0
BLOCK_RECORD
  5
1F
330
1
100
AcDbSymbolTableRecord
100
AcDbBlockTableRecord
  2
*MODEL_SPACE
  0
BLOCK_RECORD
  5
1B
330
1
100
AcDbSymbolTableRecord
100
AcDbBlockTableRecord
  2
*PAPER_SPACE
  0
ENDTAB
  0
ENDSEC
  0
SECTION
  2
BLOCKS
  0
BLOCK
  5
20
330
1F
100
AcDbEntity
  8
0
100
AcDbBlockBegin
  2
*MODEL_SPACE
 70
     0
 10
0.0
 20
0.0
 30
0.0
  3
*MODEL_SPACE
  1

  0
ENDBLK
  5
21
330
1F
100
AcDbEntity
  8
0
100
AcDbBlockEnd
  0
BLOCK
  5
1C
330
1B
100
AcDbEntity
 67
     1
  8
0
100
AcDbBlockBegin
  2
*PAPER_SPACE
  1

  0
ENDBLK
  5
1D
330
1B
100
AcDbEntity
 67
     1
  8
0
100
AcDbBlockEnd
  0
ENDSEC
  0
SECTION
  2
ENTITIES
  0
LWPOLYLINE
  5
100
100
AcDbEntity
  8
Layer_1
 62
7
100
AcDbPolyline
 90
38
 70
0
 10
14.065354
 20
199.582572
 30
0.0
 10
14.065354
 20
195.587364
 30
0.0
 10
42.287577
 20
195.587364
 30
0.0
 10
42.287577
 20
196.081253
 30
0.0
 10
45.286188
 20
196.081253
 30
0.0
 10
45.286188
 20
195.587364
 30
0.0
 10
105.805216
 20
195.587364
 30
0.0
 10
105.805216
 20
196.081253
 30
0.0
 10
108.803827
 20
196.081253
 30
0.0
 10
108.803827
 20
195.587364
 30
0.0
 10
169.322854
 20
195.587364
 30
0.0
 10
169.322854
 20
196.081253
 30
0.0
 10
172.321466
 20
196.081253
 30
0.0
 10
172.321466
 20
195.587364
 30
0.0
 10
232.840493
 20
195.587364
 30
0.0
 10
232.840493
 20
196.090072
 30
0.0
 10
235.839104
 20
196.090072
 30
0.0
 10
235.839104
 20
195.587364
 30
0.0
 10
264.061326
 20
195.587364
 30
0.0
 10
264.061326
 20
199.582572
 30
0.0
 10
235.839104
 20
199.582572
 30
0.0
 10
235.839104
 20
199.088683
 30
0.0
 10
232.840493
 20
199.088683
 30
0.0
 10
232.840493
 20
199.582572
 30
0.0
 10
172.321466
 20
199.582572
 30
0.0
 10
172.321466
 20
199.079864
 30
0.0
 10
169.322854
 20
199.079864
 30
0.0
 10
169.322854
 20
199.582572
 30
0.0
 10
108.803827
 20
199.582572
 30
0.0
 10
108.803827
 20
199.088683
 30
0.0
 10
105.805216
 20
199.088683
 30
0.0
 10
105.805216
 20
199.582572
 30
0.0
 10
45.286188
 20
199.582572
 30
0.0
 10
45.286188
 20
199.088683
 30
0.0
 10
42.287577
 20
199.088683
 30
0.0
 10
42.287577
 20
199.582572
 30
0.0
 10
14.065354
 20
199.582572
 30
0.0
 10
14.065354
 20
199.582572
 30
0.0
  0
LWPOLYLINE
  5
101
100
AcDbEntity
  8
Layer_1
 62
7
100
AcDbPolyline
 90
4
 70
0
 10
235.839107
 20
195.587336
 30
0.0
 10
235.839107
 20
195.093447
 30
0.0
 10
232.840496
 20
195.093447
 30
0.0
 10
232.840496
 20
195.587336
 30
0.0
  0
LWPOLYLINE
  5
102
100
AcDbEntity
  8
Layer_1
 62
7
100
AcDbPolyline
 90
4
 70
0
 10
172.321466
 20
195.587336
 30
0.0
 10
172.321466
 20
195.084627
 30
0.0
 10
169.322854
 20
195.084627
 30
0.0
 10
169.322854
 20
195.587336
 30
0.0
  0
LWPOLYLINE
  5
103
100
AcDbEntity
  8
Layer_1
 62
7
100
AcDbPolyline
 90
4
 70
0
 10
108.803827
 20
195.587336
 30
0.0
 10
108.803827
 20
195.093447
 30
0.0
 10
105.805216
 20
195.093447
 30
0.0
 10
105.805216
 20
195.587336
 30
0.0
  0
LWPOLYLINE
  5
104
100
AcDbEntity
  8
Layer_1
 62
7
100
AcDbPolyline
 90
4
 70
0
 10
45.286188
 20
195.587336
 30
0.0
 10
45.286188
 20
195.093447
 30
0.0
 10
42.287577
 20
195.093447
 30
0.0
 10
42.287577
 20
195.587336
 30
0.0
  0
LWPOLYLINE
  5
105
100
AcDbEntity
  8
Layer_1
 62
7
100
AcDbPolyline
 90
20
 70
0
 10
14.065354
 20
195.587336
 30
0.0
 10
14.065354
 20
191.592127
 30
0.0
 10
42.287577
 20
191.592127
 30
0.0
 10
42.287577
 20
192.086016
 30
0.0
 10
45.286188
 20
192.086016
 30
0.0
 10
45.286188
 20
191.592127
 30
0.0
 10
105.805216
 20
191.592127
 30
0.0
 10
105.805216
 20
192.086016
 30
0.0
 10
108.803827
 20
192.086016
 30
0.0
 10
108.803827
 20
191.592127
 30
0.0
 10
169.322854
 20
191.592127
 30
0.0
 10
169.322854
 20
192.086016
 30
0.0
 10
172.321466
 20
192.086016
 30
0.0
 10
172.321466
 20
191.592127
 30
0.0
 10
232.840496
 20
191.592127
 30
0.0
 10
232.840496
 20
192.094836
 30
0.0
 10
235.839107
 20
192.094836
 30
0.0
 10
235.839107
 20
191.592127
 30
0.0
 10
264.061327
 20
191.592127
 30
0.0
 10
264.061327
 20
195.587336
 30
0.0
  0
LWPOLYLINE
  5
106
100
AcDbEntity
  8
Layer_1
 62
7
100
AcDbPolyline
 90
4
 70
0
 10
235.839107
 20
179.606389
 30
0.0
 10
235.839107
 20
179.112500
 30
0.0
 10
232.840496
 20
179.112500
 30
0.0
 10
232.840496
 20
179.606389
 30
0.0
  0
LWPOLYLINE
  5
107
100
AcDbEntity
  8
Layer_1
 62
7
100
AcDbPolyline
 90
4
 70
0
 10
172.321466
 20
179.606389
 30
0.0
 10
172.321466
 20
179.103681
 30
0.0
 10
169.322854
 20
179.103681
 30
0.0
 10
169.322854
 20
179.606389
 30
0.0
  0
LWPOLYLINE
  5
108
100
AcDbEntity
  8
Layer_1
 62
7
100
AcDbPolyline
 90
4
 70
0
 10
108.803827
 20
179.606389
 30
0.0
 10
108.803827
 20
179.112500
 30
0.0
 10
105.805216
 20
179.112500
 30
0.0
 10
105.805216
 20
179.606389
 30
0.0
  0
LWPOLYLINE
  5
109
100
AcDbEntity
  8
Layer_1
 62
7
100
AcDbPolyline
 90
4
 70
0
 10
45.286188
 20
179.606389
 30
0.0
 10
45.286188
 20
179.112500
 30
0.0
 10
42.287577
 20
179.112500
 30
0.0
 10
42.287577
 20
179.606389
 30
0.0
  0
LWPOLYLINE
  5
10a
100
AcDbEntity
  8
Layer_1
 62
7
100
AcDbPolyline
 90
20
 70
0
 10
14.065354
 20
179.606389
 30
0.0
 10
14.065354
 20
175.611181
 30
0.0
 10
42.287577
 20
175.611181
 30
0.0
 10
42.287577
 20
176.105070
 30
0.0
 10
45.286188
 20
176.105070
 30
0.0
 10
45.286188
 20
175.611181
 30
0.0
 10
105.805216
 20
175.611181
 30
0.0
 10
105.805216
 20
176.105070
 30
0.0
 10
108.803827
 20
176.105070
 30
0.0
 10
108.803827
 20
175.611181
 30
0.0
 10
169.322854
 20
175.611181
 30
0.0
 10
169.322854
 20
176.105070
 30
0.0
 10
172.321466
 20
176.105070
 30
0.0
 10
172.321466
 20
175.611181
 30
0.0
 10
232.840496
 20
175.611181
 30
0.0
 10
232.840496
 20
176.113889
 30
0.0
 10
235.839107
 20
176.113889
 30
0.0
 10
235.839107
 20
175.611181
 30
0.0
 10
264.061326
 20
175.611181
 30
0.0
 10
264.061326
 20
179.606389
 30
0.0
  0
LWPOLYLINE
  5
10b
100
AcDbEntity
  8
Layer_1
 62
7
100
AcDbPolyline
 90
4
 70
0
 10
235.839107
 20
183.601626
 30
0.0
 10
235.839107
 20
183.107737
 30
0.0
 10
232.840496
 20
183.107737
 30
0.0
 10
232.840496
 20
183.601626
 30
0.0
  0
LWPOLYLINE
  5
10c
100
AcDbEntity
  8
Layer_1
 62
7
100
AcDbPolyline
 90
4
 70
0
 10
172.321466
 20
183.601626
 30
0.0
 10
172.321466
 20
183.098918
 30
0.0
 10
169.322854
 20
183.098918
 30
0.0
 10
169.322854
 20
183.601626
 30
0.0
  0
LWPOLYLINE
  5
10d
100
AcDbEntity
  8
Layer_1
 62
7
100
AcDbPolyline
 90
4
 70
0
 10
108.803827
 20
183.601626
 30
0.0
 10
108.803827
 20
183.107737
 30
0.0
 10
105.805216
 20
183.107737
 30
0.0
 10
105.805216
 20
183.601626
 30
0.0
  0
LWPOLYLINE
  5
10e
100
AcDbEntity
  8
Layer_1
 62
7
100
AcDbPolyline
 90
4
 70
0
 10
45.286188
 20
183.601626
 30
0.0
 10
45.286188
 20
183.107737
 30
0.0
 10
42.287577
 20
183.107737
 30
0.0
 10
42.287577
 20
183.601626
 30
0.0
  0
LWPOLYLINE
  5
10f
100
AcDbEntity
  8
Layer_1
 62
7
100
AcDbPolyline
 90
20
 70
0
 10
14.065354
 20
183.601626
 30
0.0
 10
14.065354
 20
179.606418
 30
0.0
 10
42.287577
 20
179.606418
 30
0.0
 10
42.287577
 20
180.100306
 30
0.0
 10
45.286188
 20
180.100306
 30
0.0
 10
45.286188
 20
179.606418
 30
0.0
 10
105.805216
 20
179.606418
 30
0.0
 10
105.805216
 20
180.100306
 30
0.0
 10
108.803827
 20
180.100306
 30
0.0
 10
108.803827
 20
179.606418
 30
0.0
 10
169.322854
 20
179.606418
 30
0.0
 10
169.322854
 20
180.100306
 30
0.0
 10
172.321466
 20
180.100306
 30
0.0
 10
172.321466
 20
179.606418
 30
0.0
 10
232.840496
 20
179.606418
 30
0.0
 10
232.840496
 20
180.109126
 30
0.0
 10
235.839107
 20
180.109126
 30
0.0
 10
235.839107
 20
179.606418
 30
0.0
 10
264.061326
 20
179.606418
 30
0.0
 10
264.061326
 20
183.601626
 30
0.0
  0
LWPOLYLINE
  5
110
100
AcDbEntity
  8
Layer_1
 62
7
100
AcDbPolyline
 90
4
 70
0
 10
235.839107
 20
191.592099
 30
0.0
 10
235.839107
 20
191.098210
 30
0.0
 10
232.840496
 20
191.098210
 30
0.0
 10
232.840496
 20
191.592099
 30
0.0
  0
LWPOLYLINE
  5
111
100
AcDbEntity
  8
Layer_1
 62
7
100
AcDbPolyline
 90
4
 70
0
 10
172.321466
 20
191.592099
 30
0.0
 10
172.321466
 20
191.089391
 30
0.0
 10
169.322854
 20
191.089391
 30
0.0
 10
169.322854
 20
191.592099
 30
0.0
  0
LWPOLYLINE
  5
112
100
AcDbEntity
  8
Layer_1
 62
7
100
AcDbPolyline
 90
4
 70
0
 10
108.803827
 20
191.592099
 30
0.0
 10
108.803827
 20
191.098210
 30
0.0
 10
105.805216
 20
191.098210
 30
0.0
 10
105.805216
 20
191.592099
 30
0.0
  0
LWPOLYLINE
  5
113
100
AcDbEntity
  8
Layer_1
 62
7
100
AcDbPolyline
 90
4
 70
0
 10
45.286188
 20
191.592099
 30
0.0
 10
45.286188
 20
191.098210
 30
0.0
 10
42.287577
 20
191.098210
 30
0.0
 10
42.287577
 20
191.592099
 30
0.0
  0
LWPOLYLINE
  5
114
100
AcDbEntity
  8
Layer_1
 62
7
100
AcDbPolyline
 90
20
 70
0
 10
14.065354
 20
191.592099
 30
0.0
 10
14.065354
 20
187.596891
 30
0.0
 10
42.287577
 20
187.596891
 30
0.0
 10
42.287577
 20
188.090780
 30
0.0
 10
45.286188
 20
188.090780
 30
0.0
 10
45.286188
 20
187.596891
 30
0.0
 10
105.805216
 20
187.596891
 30
0.0
 10
105.805216
 20
188.090780
 30
0.0
 10
108.803827
 20
188.090780
 30
0.0
 10
108.803827
 20
187.596891
 30
0.0
 10
169.322854
 20
187.596891
 30
0.0
 10
169.322854
 20
188.090780
 30
0.0
 10
172.321466
 20
188.090780
 30
0.0
 10
172.321466
 20
187.596891
 30
0.0
 10
232.840496
 20
187.596891
 30
0.0
 10
232.840496
 20
188.099599
 30
0.0
 10
235.839107
 20
188.099599
 30
0.0
 10
235.839107
 20
187.596891
 30
0.0
 10
264.061326
 20
187.596891
 30
0.0
 10
264.061326
 20
191.592099
 30
0.0
  0
LWPOLYLINE
  5
115
100
AcDbEntity
  8
Layer_1
 62
7
100
AcDbPolyline
 90
4
 70
0
 10
235.839107
 20
187.596862
 30
0.0
 10
235.839107
 20
187.102974
 30
0.0
 10
232.840496
 20
187.102974
 30
0.0
 10
232.840496
 20
187.596862
 30
0.0
  0
LWPOLYLINE
  5
116
100
AcDbEntity
  8
Layer_1
 62
7
100
AcDbPolyline
 90
4
 70
0
 10
172.321466
 20
187.596862
 30
0.0
 10
172.321466
 20
187.094154
 30
0.0
 10
169.322854
 20
187.094154
 30
0.0
 10
169.322854
 20
187.596862
 30
0.0
  0
LWPOLYLINE
  5
117
100
AcDbEntity
  8
Layer_1
 62
7
100
AcDbPolyline
 90
4
 70
0
 10
108.803827
 20
187.596862
 30
0.0
 10
108.803827
 20
187.102974
 30
0.0
 10
105.805216
 20
187.102974
 30
0.0
 10
105.805216
 20
187.596862
 30
0.0
  0
LWPOLYLINE
  5
118
100
AcDbEntity
  8
Layer_1
 62
7
100
AcDbPolyline
 90
4
 70
0
 10
45.286188
 20
187.596862
 30
0.0
 10
45.286188
 20
187.102974
 30
0.0
 10
42.287577
 20
187.102974
 30
0.0
 10
42.287577
 20
187.596862
 30
0.0
  0
LWPOLYLINE
  5
119
100
AcDbEntity
  8
Layer_1
 62
7
100
AcDbPolyline
 90
20
 70
0
 10
14.065354
 20
187.596862
 30
0.0
 10
14.065354
 20
183.601654
 30
0.0
 10
42.287577
 20
183.601654
 30
0.0
 10
42.287577
 20
184.095543
 30
0.0
 10
45.286188
 20
184.095543
 30
0.0
 10
45.286188
 20
183.601654
 30
0.0
 10
105.805216
 20
183.601654
 30
0.0
 10
105.805216
 20
184.095543
 30
0.0
 10
108.803827
 20
184.095543
 30
0.0
 10
108.803827
 20
183.601654
 30
0.0
 10
169.322854
 20
183.601654
 30
0.0
 10
169.322854
 20
184.095543
 30
0.0
 10
172.321466
 20
184.095543
 30
0.0
 10
172.321466
 20
183.601654
 30
0.0
 10
232.840496
 20
183.601654
 30
0.0
 10
232.840496
 20
184.104362
 30
0.0
 10
235.839107
 20
184.104362
 30
0.0
 10
235.839107
 20
183.601654
 30
0.0
 10
264.061326
 20
183.601654
 30
0.0
 10
264.061326
 20
187.596862
 30
0.0
  0
LWPOLYLINE
  5
11a
100
AcDbEntity
  8
Layer_1
 62
7
100
AcDbPolyline
 90
4
 70
0
 10
235.839107
 20
175.611153
 30
0.0
 10
235.839107
 20
175.117264
 30
0.0
 10
232.840496
 20
175.117264
 30
0.0
 10
232.840496
 20
175.611153
 30
0.0
  0
LWPOLYLINE
  5
11b
100
AcDbEntity
  8
Layer_1
 62
7
100
AcDbPolyline
 90
4
 70
0
 10
172.321466
 20
175.611153
 30
0.0
 10
172.321466
 20
175.108444
 30
0.0
 10
169.322854
 20
175.108444
 30
0.0
 10
169.322854
 20
175.611153
 30
0.0
  0
LWPOLYLINE
  5
11c
100
AcDbEntity
  8
Layer_1
 62
7
100
AcDbPolyline
 90
4
 70
0
 10
108.803827
 20
175.611153
 30
0.0
 10
108.803827
 20
175.117264
 30
0.0
 10
105.805216
 20
175.117264
 30
0.0
 10
105.805216
 20
175.611153
 30
0.0
  0
LWPOLYLINE
  5
11d
100
AcDbEntity
  8
Layer_1
 62
7
100
AcDbPolyline
 90
4
 70
0
 10
45.286188
 20
175.611153
 30
0.0
 10
45.286188
 20
175.117264
 30
0.0
 10
42.287577
 20
175.117264
 30
0.0
 10
42.287577
 20
175.611153
 30
0.0
  0
LWPOLYLINE
  5
11e
100
AcDbEntity
  8
Layer_1
 62
7
100
AcDbPolyline
 90
20
 70
0
 10
14.065354
 20
175.611153
 30
0.0
 10
14.065354
 20
171.615944
 30
0.0
 10
42.287577
 20
171.615944
 30
0.0
 10
42.287577
 20
172.109833
 30
0.0
 10
45.286188
 20
172.109833
 30
0.0
 10
45.286188
 20
171.615944
 30
0.0
 10
105.805216
 20
171.615944
 30
0.0
 10
105.805216
 20
172.109833
 30
0.0
 10
108.803827
 20
172.109833
 30
0.0
 10
108.803827
 20
171.615944
 30
0.0
 10
169.322854
 20
171.615944
 30
0.0
 10
169.322854
 20
172.109833
 30
0.0
 10
172.321466
 20
172.109833
 30
0.0
 10
172.321466
 20
171.615944
 30
0.0
 10
232.840496
 20
171.615944
 30
0.0
 10
232.840496
 20
172.118653
 30
0.0
 10
235.839107
 20
172.118653
 30
0.0
 10
235.839107
 20
171.615944
 30
0.0
 10
264.061325
 20
171.615944
 30
0.0
 10
264.061325
 20
175.611153
 30
0.0
  0
LWPOLYLINE
  5
11f
100
AcDbEntity
  8
Layer_1
 62
7
100
AcDbPolyline
 90
32
 70
0
 10
263.958643
 20
153.059748
 30
0.0
 10
263.958643
 20
159.056970
 30
0.0
 10
236.733018
 20
159.056970
 30
0.0
 10
236.733018
 20
156.058359
 30
0.0
 10
232.737810
 20
156.058359
 30
0.0
 10
232.737810
 20
159.056970
 30
0.0
 10
204.806629
 20
159.056970
 30
0.0
 10
204.806629
 20
156.058359
 30
0.0
 10
200.811421
 20
156.058359
 30
0.0
 10
200.811421
 20
159.056970
 30
0.0
 10
172.889060
 20
159.056970
 30
0.0
 10
172.889060
 20
156.058359
 30
0.0
 10
168.893851
 20
156.058359
 30
0.0
 10
168.893851
 20
159.056970
 30
0.0
 10
140.962671
 20
159.056970
 30
0.0
 10
140.962671
 20
156.058359
 30
0.0
 10
136.967462
 20
156.058359
 30
0.0
 10
136.967462
 20
159.056970
 30
0.0
 10
109.036285
 20
159.056970
 30
0.0
 10
109.036285
 20
156.058359
 30
0.0
 10
105.041076
 20
156.058359
 30
0.0
 10
105.041076
 20
159.056970
 30
0.0
 10
77.109896
 20
159.056970
 30
0.0
 10
77.109896
 20
156.058359
 30
0.0
 10
73.114687
 20
156.058359
 30
0.0
 10
73.114687
 20
159.056970
 30
0.0
 10
45.183504
 20
159.056970
 30
0.0
 10
45.183504
 20
156.058359
 30
0.0
 10
41.188296
 20
156.058359
 30
0.0
 10
41.188296
 20
159.056970
 30
0.0
 10
13.962672
 20
159.056970
 30
0.0
 10
13.962672
 20
153.059748
 30
0.0
  0
LWPOLYLINE
  5
120
100
AcDbEntity
  8
Layer_1
 62
7
100
AcDbPolyline
 90
32
 70
0
 10
263.958643
 20
147.062497
 30
0.0
 10
263.958643
 20
153.059719
 30
0.0
 10
236.733018
 20
153.059719
 30
0.0
 10
236.733018
 20
150.061108
 30
0.0
 10
232.737810
 20
150.061108
 30
0.0
 10
232.737810
 20
153.059719
 30
0.0
 10
204.806629
 20
153.059719
 30
0.0
 10
204.806629
 20
150.061108
 30
0.0
 10
200.811421
 20
150.061108
 30
0.0
 10
200.811421
 20
153.059719
 30
0.0
 10
172.889060
 20
153.059719
 30
0.0
 10
172.889060
 20
150.061108
 30
0.0
 10
168.893851
 20
150.061108
 30
0.0
 10
168.893851
 20
153.059719
 30
0.0
 10
140.962671
 20
153.059719
 30
0.0
 10
140.962671
 20
150.061108
 30
0.0
 10
136.967462
 20
150.061108
 30
0.0
 10
136.967462
 20
153.059719
 30
0.0
 10
109.036285
 20
153.059719
 30
0.0
 10
109.036285
 20
150.061108
 30
0.0
 10
105.041076
 20
150.061108
 30
0.0
 10
105.041076
 20
153.059719
 30
0.0
 10
77.109896
 20
153.059719
 30
0.0
 10
77.109896
 20
150.061108
 30
0.0
 10
73.114687
 20
150.061108
 30
0.0
 10
73.114687
 20
153.059719
 30
0.0
 10
45.183504
 20
153.059719
 30
0.0
 10
45.183504
 20
150.061108
 30
0.0
 10
41.188296
 20
150.061108
 30
0.0
 10
41.188296
 20
153.059719
 30
0.0
 10
13.962672
 20
153.059719
 30
0.0
 10
13.962672
 20
147.062497
 30
0.0
  0
LWPOLYLINE
  5
121
100
AcDbEntity
  8
Layer_1
 62
7
100
AcDbPolyline
 90
32
 70
0
 10
263.958643
 20
159.056998
 30
0.0
 10
263.958643
 20
165.054220
 30
0.0
 10
236.733018
 20
165.054220
 30
0.0
 10
236.733018
 20
162.055609
 30
0.0
 10
232.737810
 20
162.055609
 30
0.0
 10
232.737810
 20
165.054220
 30
0.0
 10
204.806629
 20
165.054220
 30
0.0
 10
204.806629
 20
162.055609
 30
0.0
 10
200.811421
 20
162.055609
 30
0.0
 10
200.811421
 20
165.054220
 30
0.0
 10
172.889060
 20
165.054220
 30
0.0
 10
172.889060
 20
162.055609
 30
0.0
 10
168.893851
 20
162.055609
 30
0.0
 10
168.893851
 20
165.054220
 30
0.0
 10
140.962671
 20
165.054220
 30
0.0
 10
140.962671
 20
162.055609
 30
0.0
 10
136.967462
 20
162.055609
 30
0.0
 10
136.967462
 20
165.054220
 30
0.0
 10
109.036285
 20
165.054220
 30
0.0
 10
109.036285
 20
162.055609
 30
0.0
 10
105.041076
 20
162.055609
 30
0.0
 10
105.041076
 20
165.054220
 30
0.0
 10
77.109896
 20
165.054220
 30
0.0
 10
77.109896
 20
162.055609
 30
0.0
 10
73.114687
 20
162.055609
 30
0.0
 10
73.114687
 20
165.054220
 30
0.0
 10
45.183504
 20
165.054220
 30
0.0
 10
45.183504
 20
162.055609
 30
0.0
 10
41.188296
 20
162.055609
 30
0.0
 10
41.188296
 20
165.054220
 30
0.0
 10
13.962672
 20
165.054220
 30
0.0
 10
13.962672
 20
159.056998
 30
0.0
  0
LWPOLYLINE
  5
122
100
AcDbEntity
  8
Layer_1
 62
7
100
AcDbPolyline
 90
32
 70
0
 10
263.958643
 20
165.054248
 30
0.0
 10
263.958643
 20
171.051471
 30
0.0
 10
236.733018
 20
171.051471
 30
0.0
 10
236.733018
 20
168.052860
 30
0.0
 10
232.737810
 20
168.052860
 30
0.0
 10
232.737810
 20
171.051471
 30
0.0
 10
204.806629
 20
171.051471
 30
0.0
 10
204.806629
 20
168.052860
 30
0.0
 10
200.811421
 20
168.052860
 30
0.0
 10
200.811421
 20
171.051471
 30
0.0
 10
172.889060
 20
171.051471
 30
0.0
 10
172.889060
 20
168.052860
 30
0.0
 10
168.893851
 20
168.052860
 30
0.0
 10
168.893851
 20
171.051471
 30
0.0
 10
140.962671
 20
171.051471
 30
0.0
 10
140.962671
 20
168.052860
 30
0.0
 10
136.967462
 20
168.052860
 30
0.0
 10
136.967462
 20
171.051471
 30
0.0
 10
109.036285
 20
171.051471
 30
0.0
 10
109.036285
 20
168.052860
 30
0.0
 10
105.041076
 20
168.052860
 30
0.0
 10
105.041076
 20
171.051471
 30
0.0
 10
77.109896
 20
171.051471
 30
0.0
 10
77.109896
 20
168.052860
 30
0.0
 10
73.114687
 20
168.052860
 30
0.0
 10
73.114687
 20
171.051471
 30
0.0
 10
45.183504
 20
171.051471
 30
0.0
 10
45.183504
 20
168.052860
 30
0.0
 10
41.188296
 20
168.052860
 30
0.0
 10
41.188296
 20
171.051471
 30
0.0
 10
13.962672
 20
171.051471
 30
0.0
 10
13.962672
 20
165.054248
 30
0.0
  0
LWPOLYLINE
  5
123
100
AcDbEntity
  8
Layer_1
 62
7
100
AcDbPolyline
 90
30
 70
0
 10
263.958643
 20
147.062469
 30
0.0
 10
236.733018
 20
147.062469
 30
0.0
 10
236.733018
 20
144.063858
 30
0.0
 10
232.737810
 20
144.063858
 30
0.0
 10
232.737810
 20
147.062469
 30
0.0
 10
204.806629
 20
147.062469
 30
0.0
 10
204.806629
 20
144.063858
 30
0.0
 10
200.811421
 20
144.063858
 30
0.0
 10
200.811421
 20
147.062469
 30
0.0
 10
172.889060
 20
147.062469
 30
0.0
 10
172.889060
 20
144.063858
 30
0.0
 10
168.893851
 20
144.063858
 30
0.0
 10
168.893851
 20
147.062469
 30
0.0
 10
140.962671
 20
147.062469
 30
0.0
 10
140.962671
 20
144.063858
 30
0.0
 10
136.967462
 20
144.063858
 30
0.0
 10
136.967462
 20
147.062469
 30
0.0
 10
109.036285
 20
147.062469
 30
0.0
 10
109.036285
 20
144.063858
 30
0.0
 10
105.041076
 20
144.063858
 30
0.0
 10
105.041076
 20
147.062469
 30
0.0
 10
77.109896
 20
147.062469
 30
0.0
 10
77.109896
 20
144.063858
 30
0.0
 10
73.114687
 20
144.063858
 30
0.0
 10
73.114687
 20
147.062469
 30
0.0
 10
45.183504
 20
147.062469
 30
0.0
 10
45.183504
 20
144.063858
 30
0.0
 10
41.188296
 20
144.063858
 30
0.0
 10
41.188296
 20
147.062469
 30
0.0
 10
13.962672
 20
147.062469
 30
0.0
  0
ENDSEC
  0
SECTION
  2
OBJECTS
  0
DICTIONARY
  5
C
330
0
100
AcDbDictionary
  3
ACAD_GROUP
350
D
  3
ACAD_MLINESTYLE
350
17
  0
DICTIONARY
  5
D
330
C
100
AcDbDictionary
  0
DICTIONARY
  5
1A
330
C
100
AcDbDictionary
  0
DICTIONARY
  5
17
330
C
100
AcDbDictionary
  3
STANDARD
350
18
  0
DICTIONARY
  5
19
330
C
100
AcDbDictionary
  0
ENDSEC
  0
EOF
