  0
SECTION
  2
HEADER
  9
$ACADVER
  1
AC1009
  9
$DWGCODEPAGE
  3
mac-roman
  9
$INSBASE
 10
0.0
 20
0.0
 30
0.0
  9
$EXTMIN
 10
0.0
 20
0.0
 30
0.0
  9
$EXTMAX
 10
311.0436595916748
 20
358.0999999999996
 30
189.6354552624059
  9
$LIMMIN
 10
0.0
 20
0.0
  9
$LIMMAX
 10
420.0
 20
297.0
  9
$ORTHOMODE
 70
     0
  9
$REGENMODE
 70
     1
  9
$FILLMODE
 70
     1
  9
$QTEXTMODE
 70
     0
  9
$MIRRTEXT
 70
     1
  9
$DRAGMODE
 70
     2
  9
$LTSCALE
 40
1.0
  9
$OSMODE
 70
    37
  9
$ATTMODE
 70
     1
  9
$TEXTSIZE
 40
2.5
  9
$TRACEWID
 40
1.0
  9
$TEXTSTYLE
  7
STANDARD
  9
$CLAYER
  8
0
  9
$CELTYPE
  6
BYLAYER
  9
$CECOLOR
 62
   256
  9
$DIMSCALE
 40
1.0
  9
$DIMASZ
 40
2.5
  9
$DIMEXO
 40
0.625
  9
$DIMDLI
 40
3.75
  9
$DIMRND
 40
0.0
  9
$DIMDLE
 40
0.0
  9
$DIMEXE
 40
1.25
  9
$DIMTP
 40
0.0
  9
$DIMTM
 40
0.0
  9
$DIMTXT
 40
2.5
  9
$DIMCEN
 40
2.5
  9
$DIMTSZ
 40
0.0
  9
$DIMTOL
 70
     0
  9
$DIMLIM
 70
     0
  9
$DIMTIH
 70
     0
  9
$DIMTOH
 70
     0
  9
$DIMSE1
 70
     0
  9
$DIMSE2
 70
     0
  9
$DIMTAD
 70
     1
  9
$DIMZIN
 70
     8
  9
$DIMBLK
  1

  9
$DIMASO
 70
     1
  9
$DIMSHO
 70
     1
  9
$DIMPOST
  1

  9
$DIMAPOST
  1

  9
$DIMALT
 70
     0
  9
$DIMALTD
 70
     3
  9
$DIMALTF
 40
0.03937007874016
  9
$DIMLFAC
 40
1.0
  9
$DIMTOFL
 70
     1
  9
$DIMTVP
 40
0.0
  9
$DIMTIX
 70
     0
  9
$DIMSOXD
 70
     0
  9
$DIMSAH
 70
     0
  9
$DIMBLK1
  1

  9
$DIMBLK2
  1

  9
$DIMSTYLE
  2
ISO-25
  9
$DIMCLRD
 70
     0
  9
$DIMCLRE
 70
     0
  9
$DIMCLRT
 70
     0
  9
$DIMTFAC
 40
1.0
  9
$DIMGAP
 40
0.625
  9
$LUNITS
 70
     2
  9
$LUPREC
 70
     4
  9
$SKETCHINC
 40
1.0
  9
$FILLETRAD
 40
10.0
  9
$AUNITS
 70
     0
  9
$AUPREC
 70
     0
  9
$MENU
  1
.
  9
$ELEVATION
 40
0.0
  9
$PELEVATION
 40
0.0
  9
$THICKNESS
 40
0.0
  9
$LIMCHECK
 70
     0
  9
$CHAMFERA
 40
0.0
  9
$CHAMFERB
 40
0.0
  9
$SKPOLY
 70
     0
  9
$TDCREATE
 40
1800834.458738426
  9
$TDUPDATE
 40
2458271.792076331
  9
$TDINDWG
 40
0.0000000116
  9
$TDUSRTIMER
 40
0.0000000116
  9
$USRTIMER
 70
     1
  9
$ANGBASE
 50
0.0
  9
$ANGDIR
 70
     0
  9
$PDMODE
 70
     0
  9
$PDSIZE
 40
0.0
  9
$PLINEWID
 40
0.0
  9
$COORDS
 70
     1
  9
$SPLFRAME
 70
     0
  9
$SPLINETYPE
 70
     6
  9
$SPLINESEGS
 70
     8
  9
$ATTDIA
 70
     0
  9
$ATTREQ
 70
     1
  9
$HANDLING
 70
     1
  9
$HANDSEED
  5
1E5
  9
$SURFTAB1
 70
     6
  9
$SURFTAB2
 70
     6
  9
$SURFTYPE
 70
     6
  9
$SURFU
 70
     6
  9
$SURFV
 70
     6
  9
$UCSNAME
  2

  9
$UCSORG
 10
0.0
 20
0.0
 30
0.0
  9
$UCSXDIR
 10
1.0
 20
0.0
 30
0.0
  9
$UCSYDIR
 10
0.0
 20
1.0
 30
0.0
  9
$PUCSNAME
  2

  9
$PUCSORG
 10
0.0
 20
0.0
 30
0.0
  9
$PUCSXDIR
 10
1.0
 20
0.0
 30
0.0
  9
$PUCSYDIR
 10
0.0
 20
1.0
 30
0.0
  9
$USERI1
 70
     0
  9
$USERI2
 70
     0
  9
$USERI3
 70
     0
  9
$USERI4
 70
     0
  9
$USERI5
 70
     0
  9
$USERR1
 40
0.0
  9
$USERR2
 40
0.0
  9
$USERR3
 40
0.0
  9
$USERR4
 40
0.0
  9
$USERR5
 40
0.0
  9
$WORLDVIEW
 70
     1
  9
$SHADEDGE
 70
     3
  9
$SHADEDIF
 70
    70
  9
$TILEMODE
 70
     1
  9
$MAXACTVP
 70
    64
  9
$PLIMCHECK
 70
     0
  9
$PEXTMIN
 10
1.000000000000000E+20
 20
1.000000000000000E+20
 30
1.000000000000000E+20
  9
$PEXTMAX
 10
-1.000000000000000E+20
 20
-1.000000000000000E+20
 30
-1.000000000000000E+20
  9
$PLIMMIN
 10
0.0
 20
0.0
  9
$PLIMMAX
 10
420.0
 20
297.0
  9
$UNITMODE
 70
     0
  9
$VISRETAIN
 70
     1
  9
$PLINEGEN
 70
     0
  9
$PSLTSCALE
 70
     1
  0
ENDSEC
  0
SECTION
  2
TABLES
  0
TABLE
  2
VPORT
 70
     1
  0
VPORT
  2
*ACTIVE
 70
     0
 10
0.0
 20
0.0
 11
1.0
 21
1.0
 12
344.1869158878504
 22
148.5
 13
0.0
 23
0.0
 14
10.0
 24
10.0
 15
10.0
 25
10.0
 16
0.0
 26
0.0
 36
1.0
 17
0.0
 27
0.0
 37
0.0
 40
297.0
 41
1.972972972850329
 42
50.0
 43
0.0
 44
0.0
 50
0.0
 51
0.0
 71
     0
 72
   100
 73
     1
 74
     3
 75
     0
 76
     0
 77
     0
 78
     0
  0
ENDTAB
  0
TABLE
  2
LTYPE
 70
    11
  0
LTYPE
  2
CONTINUOUS
 70
     0
  3
Solid line
 72
    65
 73
     0
 40
0.0
  0
LTYPE
  2
BORDER
 70
     0
  3
__ __ . __ __ . __ 
 72
    65
 73
     6
 40
0.875
 49
0.25
 49
-0.125
 49
0.25
 49
-0.125
 49
0.0
 49
-0.125
  0
LTYPE
  2
CENTER
 70
     0
  3
___ _ ___ _ ___ _ _
 72
    65
 73
     4
 40
1.125
 49
0.75
 49
-0.125
 49
0.125
 49
-0.125
  0
LTYPE
  2
DASHDOT
 70
     0
  3
_._._._._._._._._._
 72
    65
 73
     4
 40
0.5
 49
0.25
 49
-0.125
 49
0.0
 49
-0.125
  0
LTYPE
  2
DASHED
 70
     0
  3
_ _ _ _ _ _ _ _ _ _
 72
    65
 73
     2
 40
0.375
 49
0.25
 49
-0.125
  0
LTYPE
  2
DIVIDE
 70
     0
  3
__..__..__..__..__.
 72
    65
 73
     6
 40
0.625
 49
0.25
 49
-0.125
 49
0.0
 49
-0.125
 49
0.0
 49
-0.125
  0
LTYPE
  2
DOT
 70
     0
  3
...................
 72
    65
 73
     2
 40
0.125
 49
0.0
 49
-0.125
  0
LTYPE
  2
HIDDEN
 70
     0
  3
__ __ __ __ __ __ _
 72
    65
 73
     2
 40
0.1875
 49
0.125
 49
-0.0625
  0
LTYPE
  2
PHANTOM
 70
     0
  3
___ _ _ ___ _ _ ___
 72
    65
 73
     6
 40
1.25
 49
0.625
 49
-0.125
 49
0.125
 49
-0.125
 49
0.125
 49
-0.125
  0
LTYPE
  2
CUTTING
 70
     0
  3
________ _ _ ______
 72
    65
 73
     6
 40
1.4675
 49
1.0
 49
-0.0725
 49
0.125
 49
-0.0725
 49
0.125
 49
-0.0725
  0
LTYPE
  2
STITCH
 70
     0
  3
_ _ _ _ _ _ _ _ _ _
 72
    65
 73
     2
 40
0.145
 49
0.0725
 49
-0.0725
  0
ENDTAB
  0
TABLE
  2
LAYER
 70
     2
  0
LAYER
  2
0
 70
     0
 62
     7
  6
CONTINUOUS
  0
LAYER
  2
LAYER1
 70
     0
 62
     7
  6
CONTINUOUS
  0
ENDTAB
  0
TABLE
  2
STYLE
 70
     1
  0
STYLE
  2
STANDARD
 70
     0
 40
0.0
 41
1.0
 50
0.0
 71
     0
 42
2.5
  3
txt
  4

  0
ENDTAB
  0
TABLE
  2
VIEW
 70
     0
  0
ENDTAB
  0
TABLE
  2
UCS
 70
     0
  0
ENDTAB
  0
TABLE
  2
APPID
 70
     2
  0
APPID
  2
ACAD
 70
     0
  0
APPID
  2
ENCORE_SOFTWARE_VIACAD
 70
     0
  0
ENDTAB
  0
TABLE
  2
DIMSTYLE
 70
     1
  0
DIMSTYLE
  2
ISO-25
 70
     0
  3

  4

  5

  6

  7

 40
1.0
 41
2.5
 42
0.625
 43
3.75
 44
1.25
 45
0.0
 46
0.0
 47
0.0
 48
0.0
140
2.5
141
2.5
142
0.0
143
0.03937007874016
144
1.0
145
0.0
146
1.0
147
0.625
 71
     0
 72
     0
 73
     0
 74
     0
 75
     0
 76
     0
 77
     1
 78
     8
170
     0
171
     3
172
     1
173
     0
174
     0
175
     0
176
     0
177
     0
178
     0
  0
ENDTAB
  0
ENDSEC
  0
SECTION
  2
BLOCKS
  0
BLOCK
  8
0
  2
$MODEL_SPACE
 70
     0
 10
0.0
 20
0.0
 30
0.0
  3
$MODEL_SPACE
  1

  0
ENDBLK
  5
21
  8
0
  0
BLOCK
 67
     1
  8
0
  2
$PAPER_SPACE
 70
     0
 10
0.0
 20
0.0
 30
0.0
  3
$PAPER_SPACE
  1

  0
ENDBLK
  5
1D
 67
     1
  8
0
  0
ENDSEC
  0
SECTION
  2
ENTITIES
  0
LINE
  5
7A
  8
LAYER1
 62
     5
 10
185.6311601717801
 20
358.0999999999996
 30
0.0
 11
217.9881139980456
 21
269.1999999999997
 31
0.0
  0
LINE
  5
7B
  8
LAYER1
 62
     5
 10
185.6311601717801
 20
180.2999999999998
 30
0.0
 11
217.9881139980456
 21
269.1999999999997
 31
0.0
  0
LINE
  5
7C
  8
LAYER1
 62
     5
 10
1.92050000000048
 20
353.8643398282197
 30
0.0
 11
2.447339828220588
 21
353.3374999999995
 31
0.0
  0
ARC
  5
7D
  8
LAYER1
 62
     5
 10
2.981160171780282
 20
354.9249999999996
 30
0.0
 40
1.499999999999992
 50
179.9999999999994
 51
225.0000000000008
  0
LINE
  5
7E
  8
LAYER1
 62
     5
 10
1.92050000000048
 20
347.5143398282198
 30
0.0
 11
2.447339828220588
 21
346.9874999999996
 31
0.0
  0
LINE
  5
7F
  8
LAYER1
 62
     5
 10
1.92050000000048
 20
349.6356601717794
 30
0.0
 11
2.447339828220588
 21
350.1624999999996
 31
0.0
  0
ARC
  5
80
  8
LAYER1
 62
     5
 10
2.981160171780282
 20
348.5749999999995
 30
0.0
 40
1.499999999999952
 50
134.9999999999983
 51
224.9999999999992
  0
LINE
  5
81
  8
LAYER1
 62
     5
 10
2.974179656440787
 20
352.8106601717795
 30
0.0
 11
2.447339828220588
 21
353.3374999999995
 31
0.0
  0
LINE
  5
82
  8
LAYER1
 62
     5
 10
2.974179656440787
 20
350.6893398282198
 30
0.0
 11
2.447339828220588
 21
350.1624999999996
 31
0.0
  0
ARC
  5
83
  8
LAYER1
 62
     5
 10
1.913519484660986
 20
351.7499999999995
 30
0.0
 40
1.500000000000113
 50
315.0000000000045
 51
45.00000000000538
  0
LINE
  5
84
  8
LAYER1
 62
     5
 10
1.92050000000048
 20
341.1643398282197
 30
0.0
 11
2.447339828220588
 21
340.6374999999997
 31
0.0
  0
LINE
  5
85
  8
LAYER1
 62
     5
 10
1.92050000000048
 20
343.2856601717793
 30
0.0
 11
2.447339828220588
 21
343.8124999999995
 31
0.0
  0
ARC
  5
86
  8
LAYER1
 62
     5
 10
2.981160171780282
 20
342.2249999999996
 30
0.0
 40
1.499999999999992
 50
134.9999999999998
 51
225.0000000000008
  0
LINE
  5
87
  8
LAYER1
 62
     5
 10
2.974179656440787
 20
346.4606601717795
 30
0.0
 11
2.447339828220588
 21
346.9874999999996
 31
0.0
  0
LINE
  5
88
  8
LAYER1
 62
     5
 10
2.974179656440787
 20
344.3393398282197
 30
0.0
 11
2.447339828220588
 21
343.8124999999995
 31
0.0
  0
ARC
  5
89
  8
LAYER1
 62
     5
 10
1.913519484660986
 20
345.3999999999995
 30
0.0
 40
1.500000000000113
 50
315.0000000000045
 51
45.00000000000538
  0
LINE
  5
8A
  8
LAYER1
 62
     5
 10
1.92050000000048
 20
334.8143398282198
 30
0.0
 11
2.447339828220588
 21
334.2874999999997
 31
0.0
  0
LINE
  5
8B
  8
LAYER1
 62
     5
 10
1.92050000000048
 20
336.9356601717795
 30
0.0
 11
2.447339828220588
 21
337.4624999999997
 31
0.0
  0
ARC
  5
8C
  8
LAYER1
 62
     5
 10
2.981160171780282
 20
335.8749999999997
 30
0.0
 40
1.500000000000072
 50
135.0000000000029
 51
225.0000000000038
  0
LINE
  5
8D
  8
LAYER1
 62
     5
 10
2.974179656440787
 20
340.1106601717796
 30
0.0
 11
2.447339828220588
 21
340.6374999999997
 31
0.0
  0
LINE
  5
8E
  8
LAYER1
 62
     5
 10
2.974179656440787
 20
337.98933982822
 30
0.0
 11
2.447339828220588
 21
337.4624999999997
 31
0.0
  0
ARC
  5
8F
  8
LAYER1
 62
     5
 10
1.913519484660986
 20
339.0499999999997
 30
0.0
 40
1.499999999999992
 50
314.9999999999999
 51
45.00000000000077
  0
LINE
  5
90
  8
LAYER1
 62
     5
 10
1.92050000000048
 20
328.4643398282199
 30
0.0
 11
2.447339828220588
 21
327.9374999999997
 31
0.0
  0
LINE
  5
91
  8
LAYER1
 62
     5
 10
1.92050000000048
 20
330.5856601717795
 30
0.0
 11
2.447339828220588
 21
331.1124999999997
 31
0.0
  0
ARC
  5
92
  8
LAYER1
 62
     5
 10
2.981160171780282
 20
329.5249999999997
 30
0.0
 40
1.499999999999992
 50
134.9999999999998
 51
225.0000000000008
  0
LINE
  5
93
  8
LAYER1
 62
     5
 10
2.974179656440787
 20
333.7606601717795
 30
0.0
 11
2.447339828220588
 21
334.2874999999997
 31
0.0
  0
LINE
  5
94
  8
LAYER1
 62
     5
 10
2.974179656440787
 20
331.6393398282199
 30
0.0
 11
2.447339828220588
 21
331.1124999999997
 31
0.0
  0
ARC
  5
95
  8
LAYER1
 62
     5
 10
1.913519484660986
 20
332.6999999999997
 30
0.0
 40
1.499999999999992
 50
314.9999999999999
 51
45.00000000000077
  0
LINE
  5
96
  8
LAYER1
 62
     5
 10
1.92050000000048
 20
322.11433982822
 30
0.0
 11
2.447339828220588
 21
321.5874999999997
 31
0.0
  0
LINE
  5
97
  8
LAYER1
 62
     5
 10
1.92050000000048
 20
324.2356601717796
 30
0.0
 11
2.447339828220588
 21
324.7624999999997
 31
0.0
  0
ARC
  5
98
  8
LAYER1
 62
     5
 10
2.981160171780282
 20
323.1749999999997
 30
0.0
 40
1.499999999999952
 50
134.9999999999983
 51
224.9999999999992
  0
LINE
  5
99
  8
LAYER1
 62
     5
 10
2.974179656440787
 20
327.4106601717795
 30
0.0
 11
2.447339828220588
 21
327.9374999999997
 31
0.0
  0
LINE
  5
9A
  8
LAYER1
 62
     5
 10
2.974179656440787
 20
325.2893398282199
 30
0.0
 11
2.447339828220588
 21
324.7624999999997
 31
0.0
  0
ARC
  5
9B
  8
LAYER1
 62
     5
 10
1.913519484660986
 20
326.3499999999997
 30
0.0
 40
1.499999999999952
 50
314.9999999999984
 51
44.99999999999923
  0
LINE
  5
9C
  8
LAYER1
 62
     5
 10
1.92050000000048
 20
315.7643398282199
 30
0.0
 11
2.447339828220588
 21
315.2374999999997
 31
0.0
  0
LINE
  5
9D
  8
LAYER1
 62
     5
 10
1.92050000000048
 20
317.8856601717795
 30
0.0
 11
2.447339828220588
 21
318.4124999999997
 31
0.0
  0
ARC
  5
9E
  8
LAYER1
 62
     5
 10
2.981160171780282
 20
316.8249999999997
 30
0.0
 40
1.499999999999952
 50
134.9999999999983
 51
224.9999999999992
  0
LINE
  5
9F
  8
LAYER1
 62
     5
 10
2.974179656440787
 20
321.0606601717795
 30
0.0
 11
2.447339828220588
 21
321.5874999999997
 31
0.0
  0
LINE
  5
A0
  8
LAYER1
 62
     5
 10
2.974179656440787
 20
318.9393398282199
 30
0.0
 11
2.447339828220588
 21
318.4124999999997
 31
0.0
  0
ARC
  5
A1
  8
LAYER1
 62
     5
 10
1.913519484660986
 20
319.9999999999997
 30
0.0
 40
1.499999999999992
 50
314.9999999999999
 51
45.00000000000077
  0
LINE
  5
A2
  8
LAYER1
 62
     5
 10
1.92050000000048
 20
309.4143398282199
 30
0.0
 11
2.447339828220588
 21
308.8874999999997
 31
0.0
  0
LINE
  5
A3
  8
LAYER1
 62
     5
 10
1.92050000000048
 20
311.5356601717795
 30
0.0
 11
2.447339828220588
 21
312.0624999999997
 31
0.0
  0
ARC
  5
A4
  8
LAYER1
 62
     5
 10
2.981160171780282
 20
310.4749999999997
 30
0.0
 40
1.499999999999992
 50
134.9999999999998
 51
225.0000000000008
  0
LINE
  5
A5
  8
LAYER1
 62
     5
 10
2.974179656440787
 20
314.7106601717795
 30
0.0
 11
2.447339828220588
 21
315.2374999999997
 31
0.0
  0
LINE
  5
A6
  8
LAYER1
 62
     5
 10
2.974179656440787
 20
312.5893398282199
 30
0.0
 11
2.447339828220588
 21
312.0624999999997
 31
0.0
  0
ARC
  5
A7
  8
LAYER1
 62
     5
 10
1.913519484660986
 20
313.6499999999997
 30
0.0
 40
1.499999999999952
 50
314.9999999999984
 51
44.99999999999923
  0
LINE
  5
A8
  8
LAYER1
 62
     5
 10
1.92050000000048
 20
303.0643398282199
 30
0.0
 11
2.447339828220588
 21
302.5374999999997
 31
0.0
  0
LINE
  5
A9
  8
LAYER1
 62
     5
 10
1.92050000000048
 20
305.1856601717795
 30
0.0
 11
2.447339828220588
 21
305.7124999999997
 31
0.0
  0
ARC
  5
AA
  8
LAYER1
 62
     5
 10
2.981160171780282
 20
304.1249999999997
 30
0.0
 40
1.499999999999952
 50
134.9999999999983
 51
224.9999999999992
  0
LINE
  5
AB
  8
LAYER1
 62
     5
 10
2.974179656440787
 20
308.3606601717797
 30
0.0
 11
2.447339828220588
 21
308.8874999999997
 31
0.0
  0
LINE
  5
AC
  8
LAYER1
 62
     5
 10
2.974179656440787
 20
306.23933982822
 30
0.0
 11
2.447339828220588
 21
305.7124999999997
 31
0.0
  0
ARC
  5
AD
  8
LAYER1
 62
     5
 10
1.913519484660986
 20
307.2999999999997
 30
0.0
 40
1.500000000000113
 50
315.0000000000045
 51
45.00000000000538
  0
LINE
  5
AE
  8
LAYER1
 62
     5
 10
1.92050000000048
 20
296.7143398282199
 30
0.0
 11
2.447339828220588
 21
296.1874999999997
 31
0.0
  0
LINE
  5
AF
  8
LAYER1
 62
     5
 10
1.92050000000048
 20
298.8356601717795
 30
0.0
 11
2.447339828220588
 21
299.3624999999997
 31
0.0
  0
ARC
  5
B0
  8
LAYER1
 62
     5
 10
2.981160171780282
 20
297.7749999999997
 30
0.0
 40
1.499999999999992
 50
134.9999999999998
 51
225.0000000000008
  0
LINE
  5
B1
  8
LAYER1
 62
     5
 10
2.974179656440787
 20
302.0106601717797
 30
0.0
 11
2.447339828220588
 21
302.5374999999997
 31
0.0
  0
LINE
  5
B2
  8
LAYER1
 62
     5
 10
2.974179656440787
 20
299.8893398282199
 30
0.0
 11
2.447339828220588
 21
299.3624999999997
 31
0.0
  0
ARC
  5
B3
  8
LAYER1
 62
     5
 10
1.913519484660986
 20
300.9499999999997
 30
0.0
 40
1.500000000000113
 50
315.0000000000045
 51
45.00000000000538
  0
LINE
  5
B4
  8
LAYER1
 62
     5
 10
1.92050000000048
 20
290.36433982822
 30
0.0
 11
2.447339828220588
 21
289.8374999999997
 31
0.0
  0
LINE
  5
B5
  8
LAYER1
 62
     5
 10
1.92050000000048
 20
292.4856601717796
 30
0.0
 11
2.447339828220588
 21
293.0124999999997
 31
0.0
  0
ARC
  5
B6
  8
LAYER1
 62
     5
 10
2.981160171780282
 20
291.4249999999997
 30
0.0
 40
1.499999999999952
 50
134.9999999999983
 51
224.9999999999992
  0
LINE
  5
B7
  8
LAYER1
 62
     5
 10
2.974179656440787
 20
295.6606601717797
 30
0.0
 11
2.447339828220588
 21
296.1874999999997
 31
0.0
  0
LINE
  5
B8
  8
LAYER1
 62
     5
 10
2.974179656440787
 20
293.5393398282199
 30
0.0
 11
2.447339828220588
 21
293.0124999999997
 31
0.0
  0
ARC
  5
B9
  8
LAYER1
 62
     5
 10
1.913519484660986
 20
294.5999999999997
 30
0.0
 40
1.500000000000113
 50
315.0000000000045
 51
45.00000000000538
  0
LINE
  5
BA
  8
LAYER1
 62
     5
 10
1.92050000000048
 20
284.0143398282199
 30
0.0
 11
2.447339828220588
 21
283.4874999999997
 31
0.0
  0
LINE
  5
BB
  8
LAYER1
 62
     5
 10
1.92050000000048
 20
286.1356601717795
 30
0.0
 11
2.447339828220588
 21
286.6624999999997
 31
0.0
  0
ARC
  5
BC
  8
LAYER1
 62
     5
 10
2.981160171780282
 20
285.0749999999997
 30
0.0
 40
1.499999999999952
 50
134.9999999999983
 51
224.9999999999992
  0
LINE
  5
BD
  8
LAYER1
 62
     5
 10
2.974179656440787
 20
289.3106601717797
 30
0.0
 11
2.447339828220588
 21
289.8374999999997
 31
0.0
  0
LINE
  5
BE
  8
LAYER1
 62
     5
 10
2.974179656440787
 20
287.1893398282199
 30
0.0
 11
2.447339828220588
 21
286.6624999999997
 31
0.0
  0
ARC
  5
BF
  8
LAYER1
 62
     5
 10
1.913519484660986
 20
288.2499999999997
 30
0.0
 40
1.500000000000113
 50
315.0000000000045
 51
45.00000000000538
  0
LINE
  5
C0
  8
LAYER1
 62
     5
 10
1.92050000000048
 20
277.6643398282199
 30
0.0
 11
2.447339828220588
 21
277.1374999999997
 31
0.0
  0
LINE
  5
C1
  8
LAYER1
 62
     5
 10
1.92050000000048
 20
279.7856601717795
 30
0.0
 11
2.447339828220588
 21
280.3124999999997
 31
0.0
  0
ARC
  5
C2
  8
LAYER1
 62
     5
 10
2.981160171780282
 20
278.7249999999997
 30
0.0
 40
1.499999999999992
 50
134.9999999999998
 51
225.0000000000008
  0
LINE
  5
C3
  8
LAYER1
 62
     5
 10
2.974179656440787
 20
282.9606601717797
 30
0.0
 11
2.447339828220588
 21
283.4874999999997
 31
0.0
  0
LINE
  5
C4
  8
LAYER1
 62
     5
 10
2.974179656440787
 20
280.8393398282199
 30
0.0
 11
2.447339828220588
 21
280.3124999999997
 31
0.0
  0
ARC
  5
C5
  8
LAYER1
 62
     5
 10
1.913519484660986
 20
281.8999999999997
 30
0.0
 40
1.500000000000072
 50
315.000000000003
 51
45.00000000000384
  0
LINE
  5
C6
  8
LAYER1
 62
     5
 10
1.92050000000048
 20
273.4356601717795
 30
0.0
 11
2.447339828220588
 21
273.9624999999997
 31
0.0
  0
ARC
  5
C7
  8
LAYER1
 62
     5
 10
2.981160171780282
 20
272.3749999999997
 30
0.0
 40
1.50000000000002
 50
135.0000000000006
 51
179.9999999999994
  0
LINE
  5
C8
  8
LAYER1
 62
     5
 10
2.974179656440787
 20
276.6106601717796
 30
0.0
 11
2.447339828220588
 21
277.1374999999997
 31
0.0
  0
LINE
  5
C9
  8
LAYER1
 62
     5
 10
2.974179656440787
 20
274.48933982822
 30
0.0
 11
2.447339828220588
 21
273.9624999999997
 31
0.0
  0
ARC
  5
CA
  8
LAYER1
 62
     5
 10
1.913519484660986
 20
275.5499999999997
 30
0.0
 40
1.499999999999992
 50
314.9999999999999
 51
45.00000000000077
  0
LINE
  5
CB
  8
LAYER1
 62
     5
 10
1.92050000000048
 20
264.9643398282199
 30
0.0
 11
2.447339828220588
 21
264.4374999999997
 31
0.0
  0
ARC
  5
CC
  8
LAYER1
 62
     5
 10
2.981160171780282
 20
266.0249999999997
 30
0.0
 40
1.499999999999992
 50
179.9999999999994
 51
225.0000000000008
  0
LINE
  5
CD
  8
LAYER1
 62
     5
 10
1.92050000000048
 20
258.61433982822
 30
0.0
 11
2.447339828220588
 21
258.0874999999997
 31
0.0
  0
LINE
  5
CE
  8
LAYER1
 62
     5
 10
1.92050000000048
 20
260.7356601717796
 30
0.0
 11
2.447339828220588
 21
261.2624999999997
 31
0.0
  0
ARC
  5
CF
  8
LAYER1
 62
     5
 10
2.981160171780282
 20
259.6749999999997
 30
0.0
 40
1.499999999999952
 50
134.9999999999983
 51
224.9999999999992
  0
LINE
  5
D0
  8
LAYER1
 62
     5
 10
2.974179656440787
 20
263.9106601717797
 30
0.0
 11
2.447339828220588
 21
264.4374999999997
 31
0.0
  0
LINE
  5
D1
  8
LAYER1
 62
     5
 10
2.974179656440787
 20
261.7893398282199
 30
0.0
 11
2.447339828220588
 21
261.2624999999997
 31
0.0
  0
ARC
  5
D2
  8
LAYER1
 62
     5
 10
1.913519484660986
 20
262.8499999999997
 30
0.0
 40
1.500000000000113
 50
315.0000000000045
 51
45.00000000000538
  0
LINE
  5
D3
  8
LAYER1
 62
     5
 10
1.92050000000048
 20
252.2643398282199
 30
0.0
 11
2.447339828220588
 21
251.7374999999997
 31
0.0
  0
LINE
  5
D4
  8
LAYER1
 62
     5
 10
1.92050000000048
 20
254.3856601717795
 30
0.0
 11
2.447339828220588
 21
254.9124999999997
 31
0.0
  0
ARC
  5
D5
  8
LAYER1
 62
     5
 10
2.981160171780282
 20
253.3249999999997
 30
0.0
 40
1.499999999999972
 50
135.0000000000006
 51
225.0
  0
LINE
  5
D6
  8
LAYER1
 62
     5
 10
2.974179656440787
 20
257.5606601717797
 30
0.0
 11
2.447339828220588
 21
258.0874999999997
 31
0.0
  0
LINE
  5
D7
  8
LAYER1
 62
     5
 10
2.974179656440787
 20
255.4393398282199
 30
0.0
 11
2.447339828220588
 21
254.9124999999997
 31
0.0
  0
ARC
  5
D8
  8
LAYER1
 62
     5
 10
1.913519484660986
 20
256.4999999999997
 30
0.0
 40
1.500000000000113
 50
315.0000000000052
 51
45.00000000000538
  0
LINE
  5
D9
  8
LAYER1
 62
     5
 10
1.92050000000048
 20
245.9143398282199
 30
0.0
 11
2.447339828220588
 21
245.3874999999997
 31
0.0
  0
LINE
  5
DA
  8
LAYER1
 62
     5
 10
1.92050000000048
 20
248.0356601717795
 30
0.0
 11
2.447339828220588
 21
248.5624999999997
 31
0.0
  0
ARC
  5
DB
  8
LAYER1
 62
     5
 10
2.981160171780282
 20
246.9749999999997
 30
0.0
 40
1.499999999999972
 50
134.9999999999998
 51
225.0
  0
LINE
  5
DC
  8
LAYER1
 62
     5
 10
2.974179656440787
 20
251.2106601717797
 30
0.0
 11
2.447339828220588
 21
251.7374999999997
 31
0.0
  0
LINE
  5
DD
  8
LAYER1
 62
     5
 10
2.974179656440787
 20
249.0893398282199
 30
0.0
 11
2.447339828220588
 21
248.5624999999997
 31
0.0
  0
ARC
  5
DE
  8
LAYER1
 62
     5
 10
1.913519484660986
 20
250.1499999999997
 30
0.0
 40
1.500000000000113
 50
315.0000000000052
 51
45.00000000000538
  0
LINE
  5
DF
  8
LAYER1
 62
     5
 10
1.92050000000048
 20
239.5643398282199
 30
0.0
 11
2.447339828220588
 21
239.0374999999997
 31
0.0
  0
LINE
  5
E0
  8
LAYER1
 62
     5
 10
1.92050000000048
 20
241.6856601717795
 30
0.0
 11
2.447339828220588
 21
242.2124999999997
 31
0.0
  0
ARC
  5
E1
  8
LAYER1
 62
     5
 10
2.981160171780282
 20
240.6249999999997
 30
0.0
 40
1.499999999999972
 50
134.9999999999998
 51
225.0
  0
LINE
  5
E2
  8
LAYER1
 62
     5
 10
2.974179656440787
 20
244.8606601717797
 30
0.0
 11
2.447339828220588
 21
245.3874999999997
 31
0.0
  0
LINE
  5
E3
  8
LAYER1
 62
     5
 10
2.974179656440787
 20
242.7393398282199
 30
0.0
 11
2.447339828220588
 21
242.2124999999997
 31
0.0
  0
ARC
  5
E4
  8
LAYER1
 62
     5
 10
1.913519484660986
 20
243.7999999999997
 30
0.0
 40
1.500000000000113
 50
315.0000000000052
 51
45.00000000000538
  0
LINE
  5
E5
  8
LAYER1
 62
     5
 10
1.92050000000048
 20
233.2143398282199
 30
0.0
 11
2.447339828220588
 21
232.6874999999997
 31
0.0
  0
LINE
  5
E6
  8
LAYER1
 62
     5
 10
1.92050000000048
 20
235.3356601717795
 30
0.0
 11
2.447339828220588
 21
235.8624999999997
 31
0.0
  0
ARC
  5
E7
  8
LAYER1
 62
     5
 10
2.981160171780282
 20
234.2749999999997
 30
0.0
 40
1.499999999999972
 50
134.9999999999998
 51
225.0
  0
LINE
  5
E8
  8
LAYER1
 62
     5
 10
2.974179656440787
 20
238.5106601717797
 30
0.0
 11
2.447339828220588
 21
239.0374999999997
 31
0.0
  0
LINE
  5
E9
  8
LAYER1
 62
     5
 10
2.974179656440787
 20
236.3893398282199
 30
0.0
 11
2.447339828220588
 21
235.8624999999997
 31
0.0
  0
ARC
  5
EA
  8
LAYER1
 62
     5
 10
1.913519484660986
 20
237.4499999999997
 30
0.0
 40
1.500000000000092
 50
315.0000000000045
 51
45.0000000000046
  0
LINE
  5
EB
  8
LAYER1
 62
     5
 10
1.92050000000048
 20
226.8643398282199
 30
0.0
 11
2.447339828220588
 21
226.3374999999997
 31
0.0
  0
LINE
  5
EC
  8
LAYER1
 62
     5
 10
1.92050000000048
 20
228.9856601717795
 30
0.0
 11
2.447339828220588
 21
229.5124999999997
 31
0.0
  0
ARC
  5
ED
  8
LAYER1
 62
     5
 10
2.981160171780282
 20
227.9249999999997
 30
0.0
 40
1.499999999999972
 50
134.9999999999998
 51
225.0
  0
LINE
  5
EE
  8
LAYER1
 62
     5
 10
2.974179656440787
 20
232.1606601717797
 30
0.0
 11
2.447339828220588
 21
232.6874999999997
 31
0.0
  0
LINE
  5
EF
  8
LAYER1
 62
     5
 10
2.974179656440787
 20
230.0393398282199
 30
0.0
 11
2.447339828220588
 21
229.5124999999997
 31
0.0
  0
ARC
  5
F0
  8
LAYER1
 62
     5
 10
1.913519484660986
 20
231.0999999999997
 30
0.0
 40
1.500000000000092
 50
315.0000000000045
 51
45.0000000000046
  0
LINE
  5
F1
  8
LAYER1
 62
     5
 10
1.92050000000048
 20
220.5143398282199
 30
0.0
 11
2.447339828220588
 21
219.9874999999997
 31
0.0
  0
LINE
  5
F2
  8
LAYER1
 62
     5
 10
1.92050000000048
 20
222.6356601717795
 30
0.0
 11
2.447339828220588
 21
223.1624999999997
 31
0.0
  0
ARC
  5
F3
  8
LAYER1
 62
     5
 10
2.981160171780282
 20
221.5749999999997
 30
0.0
 40
1.499999999999972
 50
134.9999999999998
 51
225.0
  0
LINE
  5
F4
  8
LAYER1
 62
     5
 10
2.974179656440787
 20
225.8106601717797
 30
0.0
 11
2.447339828220588
 21
226.3374999999997
 31
0.0
  0
LINE
  5
F5
  8
LAYER1
 62
     5
 10
2.974179656440787
 20
223.6893398282199
 30
0.0
 11
2.447339828220588
 21
223.1624999999997
 31
0.0
  0
ARC
  5
F6
  8
LAYER1
 62
     5
 10
1.913519484660986
 20
224.7499999999997
 30
0.0
 40
1.500000000000092
 50
315.0000000000045
 51
45.0000000000046
  0
LINE
  5
F7
  8
LAYER1
 62
     5
 10
1.92050000000048
 20
214.1643398282199
 30
0.0
 11
2.447339828220588
 21
213.6374999999997
 31
0.0
  0
LINE
  5
F8
  8
LAYER1
 62
     5
 10
1.92050000000048
 20
216.2856601717795
 30
0.0
 11
2.447339828220588
 21
216.8124999999997
 31
0.0
  0
ARC
  5
F9
  8
LAYER1
 62
     5
 10
2.981160171780282
 20
215.2249999999997
 30
0.0
 40
1.499999999999972
 50
134.9999999999998
 51
225.0
  0
LINE
  5
FA
  8
LAYER1
 62
     5
 10
2.974179656440787
 20
219.4606601717797
 30
0.0
 11
2.447339828220588
 21
219.9874999999997
 31
0.0
  0
LINE
  5
FB
  8
LAYER1
 62
     5
 10
2.974179656440787
 20
217.3393398282199
 30
0.0
 11
2.447339828220588
 21
216.8124999999997
 31
0.0
  0
ARC
  5
FC
  8
LAYER1
 62
     5
 10
1.913519484660986
 20
218.3999999999997
 30
0.0
 40
1.500000000000113
 50
315.0000000000052
 51
45.00000000000538
  0
LINE
  5
FD
  8
LAYER1
 62
     5
 10
1.92050000000048
 20
207.8143398282199
 30
0.0
 11
2.447339828220588
 21
207.2874999999997
 31
0.0
  0
LINE
  5
FE
  8
LAYER1
 62
     5
 10
1.92050000000048
 20
209.9356601717795
 30
0.0
 11
2.447339828220588
 21
210.4624999999997
 31
0.0
  0
ARC
  5
FF
  8
LAYER1
 62
     5
 10
2.981160171780282
 20
208.8749999999997
 30
0.0
 40
1.499999999999972
 50
134.9999999999998
 51
225.0
  0
LINE
  5
100
  8
LAYER1
 62
     5
 10
2.974179656440787
 20
213.1106601717797
 30
0.0
 11
2.447339828220588
 21
213.6374999999997
 31
0.0
  0
LINE
  5
101
  8
LAYER1
 62
     5
 10
2.974179656440787
 20
210.9893398282199
 30
0.0
 11
2.447339828220588
 21
210.4624999999997
 31
0.0
  0
ARC
  5
102
  8
LAYER1
 62
     5
 10
1.913519484660986
 20
212.0499999999997
 30
0.0
 40
1.500000000000113
 50
315.0000000000052
 51
45.00000000000538
  0
LINE
  5
103
  8
LAYER1
 62
     5
 10
1.92050000000048
 20
201.4643398282199
 30
0.0
 11
2.447339828220588
 21
200.9374999999997
 31
0.0
  0
LINE
  5
104
  8
LAYER1
 62
     5
 10
1.92050000000048
 20
203.5856601717795
 30
0.0
 11
2.447339828220588
 21
204.1124999999997
 31
0.0
  0
ARC
  5
105
  8
LAYER1
 62
     5
 10
2.981160171780282
 20
202.5249999999997
 30
0.0
 40
1.499999999999972
 50
134.9999999999998
 51
225.0
  0
LINE
  5
106
  8
LAYER1
 62
     5
 10
2.974179656440787
 20
206.7606601717797
 30
0.0
 11
2.447339828220588
 21
207.2874999999997
 31
0.0
  0
LINE
  5
107
  8
LAYER1
 62
     5
 10
2.974179656440787
 20
204.6393398282199
 30
0.0
 11
2.447339828220588
 21
204.1124999999997
 31
0.0
  0
ARC
  5
108
  8
LAYER1
 62
     5
 10
1.913519484660986
 20
205.6999999999997
 30
0.0
 40
1.500000000000113
 50
315.0000000000052
 51
45.00000000000538
  0
LINE
  5
109
  8
LAYER1
 62
     5
 10
1.92050000000048
 20
195.1143398282199
 30
0.0
 11
2.447339828220588
 21
194.5874999999997
 31
0.0
  0
LINE
  5
10A
  8
LAYER1
 62
     5
 10
1.92050000000048
 20
197.2356601717795
 30
0.0
 11
2.447339828220588
 21
197.7624999999997
 31
0.0
  0
ARC
  5
10B
  8
LAYER1
 62
     5
 10
2.981160171780282
 20
196.1749999999997
 30
0.0
 40
1.499999999999972
 50
134.9999999999998
 51
225.0
  0
LINE
  5
10C
  8
LAYER1
 62
     5
 10
2.974179656440787
 20
200.4106601717797
 30
0.0
 11
2.447339828220588
 21
200.9374999999997
 31
0.0
  0
LINE
  5
10D
  8
LAYER1
 62
     5
 10
2.974179656440787
 20
198.2893398282199
 30
0.0
 11
2.447339828220588
 21
197.7624999999997
 31
0.0
  0
ARC
  5
10E
  8
LAYER1
 62
     5
 10
1.913519484660986
 20
199.3499999999997
 30
0.0
 40
1.500000000000092
 50
315.0000000000045
 51
45.0000000000046
  0
LINE
  5
10F
  8
LAYER1
 62
     5
 10
1.92050000000048
 20
188.76433982822
 30
0.0
 11
2.447339828220588
 21
188.2374999999998
 31
0.0
  0
LINE
  5
110
  8
LAYER1
 62
     5
 10
1.92050000000048
 20
190.8856601717796
 30
0.0
 11
2.447339828220588
 21
191.4124999999998
 31
0.0
  0
ARC
  5
111
  8
LAYER1
 62
     5
 10
2.981160171780282
 20
189.8249999999998
 30
0.0
 40
1.499999999999972
 50
134.9999999999998
 51
225.0
  0
LINE
  5
112
  8
LAYER1
 62
     5
 10
2.974179656440787
 20
194.0606601717798
 30
0.0
 11
2.447339828220588
 21
194.5874999999997
 31
0.0
  0
LINE
  5
113
  8
LAYER1
 62
     5
 10
2.974179656440787
 20
191.93933982822
 30
0.0
 11
2.447339828220588
 21
191.4124999999998
 31
0.0
  0
ARC
  5
114
  8
LAYER1
 62
     5
 10
1.913519484660986
 20
192.9999999999998
 30
0.0
 40
1.500000000000113
 50
315.0000000000052
 51
45.00000000000538
  0
LINE
  5
115
  8
LAYER1
 62
     5
 10
1.92050000000048
 20
184.5356601717796
 30
0.0
 11
2.447339828220588
 21
185.0624999999998
 31
0.0
  0
ARC
  5
116
  8
LAYER1
 62
     5
 10
2.981160171780282
 20
183.4749999999998
 30
0.0
 40
1.50000000000002
 50
134.9999999999998
 51
179.9999999999994
  0
LINE
  5
117
  8
LAYER1
 62
     5
 10
2.974179656440787
 20
187.7106601717798
 30
0.0
 11
2.447339828220588
 21
188.2374999999998
 31
0.0
  0
LINE
  5
118
  8
LAYER1
 62
     5
 10
2.974179656440787
 20
185.58933982822
 30
0.0
 11
2.447339828220588
 21
185.0624999999998
 31
0.0
  0
ARC
  5
119
  8
LAYER1
 62
     5
 10
1.913519484660986
 20
186.6499999999998
 30
0.0
 40
1.500000000000092
 50
315.0000000000045
 51
45.0000000000046
  0
POLYLINE
  5
11A
  8
LAYER1
 62
     5
 10
0.0
 20
0.0
 30
0.0
 66
     1
 70
     8
  0
VERTEX
  5
11B
  8
LAYER1
 62
     5
 10
222.1436614990234
 20
59.65000152587891
 30
0.0
 70
    32
  0
VERTEX
  5
11C
  8
LAYER1
 62
     5
 10
311.0436706542969
 20
59.65000152587891
 30
0.0
 70
    32
  0
VERTEX
  5
11D
  8
LAYER1
 62
     5
 10
311.0436706542969
 20
300.9500122070312
 30
0.0
 70
    32
  0
VERTEX
  5
11E
  8
LAYER1
 62
     5
 10
222.1436614990234
 20
300.9500122070312
 30
0.0
 70
    32
  0
VERTEX
  5
11F
  8
LAYER1
 62
     5
 10
222.1436614990234
 20
59.65000152587891
 30
0.0
 70
    32
  0
SEQEND
  5
120
  8
LAYER1
 62
     5
  0
LINE
  5
121
  8
LAYER1
 62
     5
 10
222.1436843951079
 20
180.2999801637723
 30
0.0
 11
209.4436743007799
 21
180.2999801637721
 31
0.0
  0
LINE
  5
122
  8
LAYER1
 62
     5
 10
209.4436743007799
 20
180.2999801637721
 30
0.0
 11
209.4436843951079
 21
129.4999801637723
 31
0.0
  0
LINE
  5
123
  8
LAYER1
 62
     5
 10
209.4436843951079
 20
129.4999801637723
 30
0.0
 11
222.1436743007799
 21
129.4999801637721
 31
0.0
  0
LINE
  5
124
  8
LAYER1
 62
     5
 10
3.068660171780262
 20
358.0999999999996
 30
0.0
 11
185.6311601717801
 21
358.0999999999996
 31
0.0
  0
LINE
  5
125
  8
LAYER1
 62
     5
 10
185.6311601717801
 20
180.2999999999998
 30
0.0
 11
3.068660171780262
 21
180.2999999999998
 31
0.0
  0
LINE
  5
126
  8
LAYER1
 62
     5
 10
3.068660171780262
 20
269.1999999999997
 30
0.0
 11
217.9881139980456
 21
269.1999999999997
 31
0.0
  0
LINE
  5
127
  8
LAYER1
 62
     5
 10
1.481160171780262
 20
354.9249999999996
 30
0.0
 11
3.068660171780262
 21
354.9249999999996
 31
0.0
  0
LINE
  5
128
  8
LAYER1
 62
     5
 10
3.068660171780262
 20
354.9249999999996
 30
0.0
 11
3.068660171780262
 21
358.0999999999996
 31
0.0
  0
LINE
  5
129
  8
LAYER1
 62
     5
 10
1.481160171780262
 20
272.3749999999997
 30
0.0
 11
3.068660171780262
 21
272.3749999999997
 31
0.0
  0
LINE
  5
12A
  8
LAYER1
 62
     5
 10
1.481160171780262
 20
266.0249999999996
 30
0.0
 11
3.068660171780262
 21
266.0249999999996
 31
0.0
  0
LINE
  5
12B
  8
LAYER1
 62
     5
 10
3.068660171780262
 20
272.3749999999997
 30
0.0
 11
3.068660171780262
 21
266.0249999999996
 31
0.0
  0
LINE
  5
12C
  8
LAYER1
 62
     5
 10
1.481160171780262
 20
183.4749999999998
 30
0.0
 11
3.068660171780262
 21
183.4749999999998
 31
0.0
  0
LINE
  5
12D
  8
LAYER1
 62
     5
 10
3.068660171780262
 20
183.4749999999998
 30
0.0
 11
3.068660171780262
 21
180.2999999999998
 31
0.0
  0
LINE
  5
12E
  8
LAYER1
 62
     5
 10
185.6311601717801
 20
180.2999999999998
 30
0.0
 11
217.9881139980456
 21
91.39999999999999
 31
0.0
  0
LINE
  5
12F
  8
LAYER1
 62
     5
 10
185.6311601717801
 20
2.5
 30
0.0
 11
217.9881139980456
 21
91.39999999999999
 31
0.0
  0
LINE
  5
130
  8
LAYER1
 62
     5
 10
1.92050000000048
 20
176.06433982822
 30
0.0
 11
2.447339828220588
 21
175.5374999999998
 31
0.0
  0
ARC
  5
131
  8
LAYER1
 62
     5
 10
2.981160171780282
 20
177.1249999999998
 30
0.0
 40
1.499999999999972
 50
179.9999999999994
 51
225.0
  0
LINE
  5
132
  8
LAYER1
 62
     5
 10
1.92050000000048
 20
169.71433982822
 30
0.0
 11
2.447339828220588
 21
169.1874999999998
 31
0.0
  0
LINE
  5
133
  8
LAYER1
 62
     5
 10
1.92050000000048
 20
171.8356601717796
 30
0.0
 11
2.447339828220588
 21
172.3624999999998
 31
0.0
  0
ARC
  5
134
  8
LAYER1
 62
     5
 10
2.981160171780282
 20
170.7749999999998
 30
0.0
 40
1.499999999999972
 50
134.9999999999998
 51
225.0
  0
LINE
  5
135
  8
LAYER1
 62
     5
 10
2.974179656440787
 20
175.0106601717798
 30
0.0
 11
2.447339828220588
 21
175.5374999999998
 31
0.0
  0
LINE
  5
136
  8
LAYER1
 62
     5
 10
2.974179656440787
 20
172.88933982822
 30
0.0
 11
2.447339828220588
 21
172.3624999999998
 31
0.0
  0
ARC
  5
137
  8
LAYER1
 62
     5
 10
1.913519484660986
 20
173.9499999999998
 30
0.0
 40
1.500000000000113
 50
315.0000000000052
 51
45.00000000000538
  0
LINE
  5
138
  8
LAYER1
 62
     5
 10
1.92050000000048
 20
163.36433982822
 30
0.0
 11
2.447339828220588
 21
162.8375
 31
0.0
  0
LINE
  5
139
  8
LAYER1
 62
     5
 10
1.92050000000048
 20
165.4856601717796
 30
0.0
 11
2.447339828220588
 21
166.0124999999998
 31
0.0
  0
ARC
  5
13A
  8
LAYER1
 62
     5
 10
2.981160171780282
 20
164.4249999999998
 30
0.0
 40
1.499999999999972
 50
134.9999999999998
 51
225.0
  0
LINE
  5
13B
  8
LAYER1
 62
     5
 10
2.974179656440787
 20
168.6606601717798
 30
0.0
 11
2.447339828220588
 21
169.1874999999998
 31
0.0
  0
LINE
  5
13C
  8
LAYER1
 62
     5
 10
2.974179656440787
 20
166.53933982822
 30
0.0
 11
2.447339828220588
 21
166.0124999999998
 31
0.0
  0
ARC
  5
13D
  8
LAYER1
 62
     5
 10
1.913519484660986
 20
167.5999999999998
 30
0.0
 40
1.500000000000113
 50
315.0000000000052
 51
45.00000000000538
  0
LINE
  5
13E
  8
LAYER1
 62
     5
 10
1.92050000000048
 20
157.01433982822
 30
0.0
 11
2.447339828220588
 21
156.4875
 31
0.0
  0
LINE
  5
13F
  8
LAYER1
 62
     5
 10
1.92050000000048
 20
159.1356601717798
 30
0.0
 11
2.447339828220588
 21
159.6625
 31
0.0
  0
ARC
  5
140
  8
LAYER1
 62
     5
 10
2.981160171780282
 20
158.075
 30
0.0
 40
1.500000000000113
 50
135.0000000000052
 51
225.0000000000053
  0
LINE
  5
141
  8
LAYER1
 62
     5
 10
2.974179656440787
 20
162.3106601717798
 30
0.0
 11
2.447339828220588
 21
162.8375
 31
0.0
  0
LINE
  5
142
  8
LAYER1
 62
     5
 10
2.974179656440787
 20
160.1893398282202
 30
0.0
 11
2.447339828220588
 21
159.6625
 31
0.0
  0
ARC
  5
143
  8
LAYER1
 62
     5
 10
1.913519484660986
 20
161.25
 30
0.0
 40
1.499999999999972
 50
314.9999999999999
 51
45.0
  0
LINE
  5
144
  8
LAYER1
 62
     5
 10
1.92050000000048
 20
150.6643398282202
 30
0.0
 11
2.447339828220588
 21
150.1375
 31
0.0
  0
LINE
  5
145
  8
LAYER1
 62
     5
 10
1.92050000000048
 20
152.7856601717798
 30
0.0
 11
2.447339828220588
 21
153.3125
 31
0.0
  0
ARC
  5
146
  8
LAYER1
 62
     5
 10
2.981160171780282
 20
151.725
 30
0.0
 40
1.499999999999972
 50
134.9999999999998
 51
225.0
  0
LINE
  5
147
  8
LAYER1
 62
     5
 10
2.974179656440787
 20
155.9606601717798
 30
0.0
 11
2.447339828220588
 21
156.4875
 31
0.0
  0
LINE
  5
148
  8
LAYER1
 62
     5
 10
2.974179656440787
 20
153.8393398282202
 30
0.0
 11
2.447339828220588
 21
153.3125
 31
0.0
  0
ARC
  5
149
  8
LAYER1
 62
     5
 10
1.913519484660986
 20
154.9
 30
0.0
 40
1.499999999999972
 50
314.9999999999999
 51
45.0
  0
LINE
  5
14A
  8
LAYER1
 62
     5
 10
1.92050000000048
 20
144.3143398282202
 30
0.0
 11
2.447339828220588
 21
143.7875
 31
0.0
  0
LINE
  5
14B
  8
LAYER1
 62
     5
 10
1.92050000000048
 20
146.4356601717798
 30
0.0
 11
2.447339828220588
 21
146.9625
 31
0.0
  0
ARC
  5
14C
  8
LAYER1
 62
     5
 10
2.981160171780282
 20
145.375
 30
0.0
 40
1.499999999999972
 50
134.9999999999998
 51
225.0
  0
LINE
  5
14D
  8
LAYER1
 62
     5
 10
2.974179656440787
 20
149.6106601717798
 30
0.0
 11
2.447339828220588
 21
150.1375
 31
0.0
  0
LINE
  5
14E
  8
LAYER1
 62
     5
 10
2.974179656440787
 20
147.4893398282202
 30
0.0
 11
2.447339828220588
 21
146.9625
 31
0.0
  0
ARC
  5
14F
  8
LAYER1
 62
     5
 10
1.913519484660986
 20
148.55
 30
0.0
 40
1.499999999999972
 50
314.9999999999999
 51
45.0
  0
LINE
  5
150
  8
LAYER1
 62
     5
 10
1.92050000000048
 20
137.9643398282202
 30
0.0
 11
2.447339828220588
 21
137.4375
 31
0.0
  0
LINE
  5
151
  8
LAYER1
 62
     5
 10
1.92050000000048
 20
140.0856601717798
 30
0.0
 11
2.447339828220588
 21
140.6125
 31
0.0
  0
ARC
  5
152
  8
LAYER1
 62
     5
 10
2.981160171780282
 20
139.025
 30
0.0
 40
1.499999999999972
 50
134.9999999999998
 51
225.0
  0
LINE
  5
153
  8
LAYER1
 62
     5
 10
2.974179656440787
 20
143.2606601717798
 30
0.0
 11
2.447339828220588
 21
143.7875
 31
0.0
  0
LINE
  5
154
  8
LAYER1
 62
     5
 10
2.974179656440787
 20
141.1393398282202
 30
0.0
 11
2.447339828220588
 21
140.6125
 31
0.0
  0
ARC
  5
155
  8
LAYER1
 62
     5
 10
1.913519484660986
 20
142.2
 30
0.0
 40
1.499999999999972
 50
314.9999999999999
 51
45.0
  0
LINE
  5
156
  8
LAYER1
 62
     5
 10
1.92050000000048
 20
131.6143398282202
 30
0.0
 11
2.447339828220588
 21
131.0875
 31
0.0
  0
LINE
  5
157
  8
LAYER1
 62
     5
 10
1.92050000000048
 20
133.7356601717798
 30
0.0
 11
2.447339828220588
 21
134.2625
 31
0.0
  0
ARC
  5
158
  8
LAYER1
 62
     5
 10
2.981160171780282
 20
132.675
 30
0.0
 40
1.499999999999972
 50
134.9999999999998
 51
225.0
  0
LINE
  5
159
  8
LAYER1
 62
     5
 10
2.974179656440787
 20
136.9106601717798
 30
0.0
 11
2.447339828220588
 21
137.4375
 31
0.0
  0
LINE
  5
15A
  8
LAYER1
 62
     5
 10
2.974179656440787
 20
134.7893398282202
 30
0.0
 11
2.447339828220588
 21
134.2625
 31
0.0
  0
ARC
  5
15B
  8
LAYER1
 62
     5
 10
1.913519484660986
 20
135.85
 30
0.0
 40
1.499999999999972
 50
314.9999999999999
 51
45.0
  0
LINE
  5
15C
  8
LAYER1
 62
     5
 10
1.92050000000048
 20
125.2643398282202
 30
0.0
 11
2.447339828220588
 21
124.7375
 31
0.0
  0
LINE
  5
15D
  8
LAYER1
 62
     5
 10
1.92050000000048
 20
127.3856601717798
 30
0.0
 11
2.447339828220588
 21
127.9125
 31
0.0
  0
ARC
  5
15E
  8
LAYER1
 62
     5
 10
2.981160171780282
 20
126.325
 30
0.0
 40
1.499999999999972
 50
134.9999999999998
 51
225.0
  0
LINE
  5
15F
  8
LAYER1
 62
     5
 10
2.974179656440787
 20
130.56066017178
 30
0.0
 11
2.447339828220588
 21
131.0875
 31
0.0
  0
LINE
  5
160
  8
LAYER1
 62
     5
 10
2.974179656440787
 20
128.4393398282202
 30
0.0
 11
2.447339828220588
 21
127.9125
 31
0.0
  0
ARC
  5
161
  8
LAYER1
 62
     5
 10
1.913519484660986
 20
129.5
 30
0.0
 40
1.500000000000113
 50
315.0000000000052
 51
45.00000000000538
  0
LINE
  5
162
  8
LAYER1
 62
     5
 10
1.92050000000048
 20
118.9143398282202
 30
0.0
 11
2.447339828220588
 21
118.3875
 31
0.0
  0
LINE
  5
163
  8
LAYER1
 62
     5
 10
1.92050000000048
 20
121.0356601717798
 30
0.0
 11
2.447339828220588
 21
121.5625
 31
0.0
  0
ARC
  5
164
  8
LAYER1
 62
     5
 10
2.981160171780282
 20
119.975
 30
0.0
 40
1.499999999999972
 50
135.0000000000006
 51
225.0
  0
LINE
  5
165
  8
LAYER1
 62
     5
 10
2.974179656440787
 20
124.21066017178
 30
0.0
 11
2.447339828220588
 21
124.7375
 31
0.0
  0
LINE
  5
166
  8
LAYER1
 62
     5
 10
2.974179656440787
 20
122.0893398282202
 30
0.0
 11
2.447339828220588
 21
121.5625
 31
0.0
  0
ARC
  5
167
  8
LAYER1
 62
     5
 10
1.913519484660986
 20
123.15
 30
0.0
 40
1.500000000000102
 50
315.0000000000048
 51
45.000000000005
  0
LINE
  5
168
  8
LAYER1
 62
     5
 10
1.92050000000048
 20
112.5643398282202
 30
0.0
 11
2.447339828220588
 21
112.0375
 31
0.0
  0
LINE
  5
169
  8
LAYER1
 62
     5
 10
1.92050000000048
 20
114.6856601717798
 30
0.0
 11
2.447339828220588
 21
115.2125
 31
0.0
  0
ARC
  5
16A
  8
LAYER1
 62
     5
 10
2.981160171780282
 20
113.625
 30
0.0
 40
1.499999999999972
 50
135.0000000000006
 51
225.0
  0
LINE
  5
16B
  8
LAYER1
 62
     5
 10
2.974179656440787
 20
117.86066017178
 30
0.0
 11
2.447339828220588
 21
118.3875
 31
0.0
  0
LINE
  5
16C
  8
LAYER1
 62
     5
 10
2.974179656440787
 20
115.7393398282202
 30
0.0
 11
2.447339828220588
 21
115.2125
 31
0.0
  0
ARC
  5
16D
  8
LAYER1
 62
     5
 10
1.913519484660986
 20
116.8
 30
0.0
 40
1.500000000000102
 50
315.0000000000048
 51
45.000000000005
  0
LINE
  5
16E
  8
LAYER1
 62
     5
 10
1.92050000000048
 20
106.2143398282202
 30
0.0
 11
2.447339828220588
 21
105.6875
 31
0.0
  0
LINE
  5
16F
  8
LAYER1
 62
     5
 10
1.92050000000048
 20
108.3356601717798
 30
0.0
 11
2.447339828220588
 21
108.8625
 31
0.0
  0
ARC
  5
170
  8
LAYER1
 62
     5
 10
2.981160171780282
 20
107.275
 30
0.0
 40
1.499999999999972
 50
134.9999999999998
 51
225.0
  0
LINE
  5
171
  8
LAYER1
 62
     5
 10
2.974179656440787
 20
111.51066017178
 30
0.0
 11
2.447339828220588
 21
112.0375
 31
0.0
  0
LINE
  5
172
  8
LAYER1
 62
     5
 10
2.974179656440787
 20
109.3893398282202
 30
0.0
 11
2.447339828220588
 21
108.8625
 31
0.0
  0
ARC
  5
173
  8
LAYER1
 62
     5
 10
1.913519484660986
 20
110.45
 30
0.0
 40
1.500000000000092
 50
315.0000000000045
 51
45.0000000000046
  0
LINE
  5
174
  8
LAYER1
 62
     5
 10
1.92050000000048
 20
99.86433982822021
 30
0.0
 11
2.447339828220588
 21
99.3375
 31
0.0
  0
LINE
  5
175
  8
LAYER1
 62
     5
 10
1.92050000000048
 20
101.9856601717798
 30
0.0
 11
2.447339828220588
 21
102.5125
 31
0.0
  0
ARC
  5
176
  8
LAYER1
 62
     5
 10
2.981160171780282
 20
100.925
 30
0.0
 40
1.499999999999972
 50
134.9999999999998
 51
225.0
  0
LINE
  5
177
  8
LAYER1
 62
     5
 10
2.974179656440787
 20
105.16066017178
 30
0.0
 11
2.447339828220588
 21
105.6875
 31
0.0
  0
LINE
  5
178
  8
LAYER1
 62
     5
 10
2.974179656440787
 20
103.0393398282202
 30
0.0
 11
2.447339828220588
 21
102.5125
 31
0.0
  0
ARC
  5
179
  8
LAYER1
 62
     5
 10
1.913519484660986
 20
104.1
 30
0.0
 40
1.500000000000102
 50
315.0000000000048
 51
45.000000000005
  0
LINE
  5
17A
  8
LAYER1
 62
     5
 10
1.92050000000048
 20
95.63566017177982
 30
0.0
 11
2.447339828220588
 21
96.16250000000001
 31
0.0
  0
ARC
  5
17B
  8
LAYER1
 62
     5
 10
2.981160171780282
 20
94.57500000000002
 30
0.0
 40
1.50000000000002
 50
134.9999999999998
 51
179.9999999999994
  0
LINE
  5
17C
  8
LAYER1
 62
     5
 10
2.974179656440787
 20
98.81066017177982
 30
0.0
 11
2.447339828220588
 21
99.3375
 31
0.0
  0
LINE
  5
17D
  8
LAYER1
 62
     5
 10
2.974179656440787
 20
96.68933982822021
 30
0.0
 11
2.447339828220588
 21
96.16250000000001
 31
0.0
  0
ARC
  5
17E
  8
LAYER1
 62
     5
 10
1.913519484660986
 20
97.75000000000001
 30
0.0
 40
1.499999999999972
 50
314.9999999999999
 51
45.0
  0
LINE
  5
17F
  8
LAYER1
 62
     5
 10
1.92050000000048
 20
87.16433982822019
 30
0.0
 11
2.447339828220588
 21
86.63749999999999
 31
0.0
  0
ARC
  5
180
  8
LAYER1
 62
     5
 10
2.981160171780282
 20
88.225
 30
0.0
 40
1.499999999999972
 50
179.9999999999994
 51
225.0
  0
LINE
  5
181
  8
LAYER1
 62
     5
 10
1.92050000000048
 20
80.81433982822018
 30
0.0
 11
2.447339828220588
 21
80.2875
 31
0.0
  0
LINE
  5
182
  8
LAYER1
 62
     5
 10
1.92050000000048
 20
82.93566017177979
 30
0.0
 11
2.447339828220588
 21
83.46249999999999
 31
0.0
  0
ARC
  5
183
  8
LAYER1
 62
     5
 10
2.981160171780282
 20
81.87499999999999
 30
0.0
 40
1.499999999999972
 50
135.0000000000006
 51
225.0
  0
LINE
  5
184
  8
LAYER1
 62
     5
 10
2.974179656440787
 20
86.11066017177997
 30
0.0
 11
2.447339828220588
 21
86.63749999999999
 31
0.0
  0
LINE
  5
185
  8
LAYER1
 62
     5
 10
2.974179656440787
 20
83.9893398282202
 30
0.0
 11
2.447339828220588
 21
83.46249999999999
 31
0.0
  0
ARC
  5
186
  8
LAYER1
 62
     5
 10
1.913519484660986
 20
85.05
 30
0.0
 40
1.500000000000092
 50
315.0000000000045
 51
45.0000000000046
  0
LINE
  5
187
  8
LAYER1
 62
     5
 10
1.92050000000048
 20
74.46433982822019
 30
0.0
 11
2.447339828220588
 21
73.93749999999999
 31
0.0
  0
LINE
  5
188
  8
LAYER1
 62
     5
 10
1.92050000000048
 20
76.5856601717798
 30
0.0
 11
2.447339828220588
 21
77.1125
 31
0.0
  0
ARC
  5
189
  8
LAYER1
 62
     5
 10
2.981160171780282
 20
75.52499999999999
 30
0.0
 40
1.499999999999972
 50
135.0000000000006
 51
225.0
  0
LINE
  5
18A
  8
LAYER1
 62
     5
 10
2.974179656440787
 20
79.76066017177997
 30
0.0
 11
2.447339828220588
 21
80.2875
 31
0.0
  0
LINE
  5
18B
  8
LAYER1
 62
     5
 10
2.974179656440787
 20
77.63933982822019
 30
0.0
 11
2.447339828220588
 21
77.1125
 31
0.0
  0
ARC
  5
18C
  8
LAYER1
 62
     5
 10
1.913519484660986
 20
78.69999999999999
 30
0.0
 40
1.500000000000102
 50
315.0000000000048
 51
45.000000000005
  0
LINE
  5
18D
  8
LAYER1
 62
     5
 10
1.92050000000048
 20
68.1143398282202
 30
0.0
 11
2.447339828220588
 21
67.58749999999999
 31
0.0
  0
LINE
  5
18E
  8
LAYER1
 62
     5
 10
1.92050000000048
 20
70.2356601717798
 30
0.0
 11
2.447339828220588
 21
70.76249999999999
 31
0.0
  0
ARC
  5
18F
  8
LAYER1
 62
     5
 10
2.981160171780282
 20
69.175
 30
0.0
 40
1.499999999999972
 50
135.0000000000006
 51
225.0
  0
LINE
  5
190
  8
LAYER1
 62
     5
 10
2.974179656440787
 20
73.41066017177997
 30
0.0
 11
2.447339828220588
 21
73.93749999999999
 31
0.0
  0
LINE
  5
191
  8
LAYER1
 62
     5
 10
2.974179656440787
 20
71.28933982822019
 30
0.0
 11
2.447339828220588
 21
70.76249999999999
 31
0.0
  0
ARC
  5
192
  8
LAYER1
 62
     5
 10
1.913519484660986
 20
72.35
 30
0.0
 40
1.500000000000092
 50
315.0000000000045
 51
45.0000000000046
  0
LINE
  5
193
  8
LAYER1
 62
     5
 10
1.92050000000048
 20
61.76433982822019
 30
0.0
 11
2.447339828220588
 21
61.23749999999999
 31
0.0
  0
LINE
  5
194
  8
LAYER1
 62
     5
 10
1.92050000000048
 20
63.88566017177979
 30
0.0
 11
2.447339828220588
 21
64.4125
 31
0.0
  0
ARC
  5
195
  8
LAYER1
 62
     5
 10
2.981160171780282
 20
62.82499999999999
 30
0.0
 40
1.499999999999972
 50
134.9999999999998
 51
225.0
  0
LINE
  5
196
  8
LAYER1
 62
     5
 10
2.974179656440787
 20
67.06066017177997
 30
0.0
 11
2.447339828220588
 21
67.58749999999999
 31
0.0
  0
LINE
  5
197
  8
LAYER1
 62
     5
 10
2.974179656440787
 20
64.93933982822018
 30
0.0
 11
2.447339828220588
 21
64.4125
 31
0.0
  0
ARC
  5
198
  8
LAYER1
 62
     5
 10
1.913519484660986
 20
65.99999999999999
 30
0.0
 40
1.500000000000102
 50
315.0000000000048
 51
45.000000000005
  0
LINE
  5
199
  8
LAYER1
 62
     5
 10
1.92050000000048
 20
55.41433982822019
 30
0.0
 11
2.447339828220588
 21
54.8875
 31
0.0
  0
LINE
  5
19A
  8
LAYER1
 62
     5
 10
1.92050000000048
 20
57.5356601717798
 30
0.0
 11
2.447339828220588
 21
58.06249999999999
 31
0.0
  0
ARC
  5
19B
  8
LAYER1
 62
     5
 10
2.981160171780282
 20
56.47499999999999
 30
0.0
 40
1.499999999999972
 50
135.0
 51
225.0
  0
LINE
  5
19C
  8
LAYER1
 62
     5
 10
2.974179656440787
 20
60.71066017177997
 30
0.0
 11
2.447339828220588
 21
61.23749999999999
 31
0.0
  0
LINE
  5
19D
  8
LAYER1
 62
     5
 10
2.974179656440787
 20
58.58933982822019
 30
0.0
 11
2.447339828220588
 21
58.06249999999999
 31
0.0
  0
ARC
  5
19E
  8
LAYER1
 62
     5
 10
1.913519484660986
 20
59.64999999999999
 30
0.0
 40
1.500000000000097
 50
315.0000000000048
 51
45.0000000000048
  0
LINE
  5
19F
  8
LAYER1
 62
     5
 10
1.92050000000048
 20
49.06433982822021
 30
0.0
 11
2.447339828220588
 21
48.5375
 31
0.0
  0
LINE
  5
1A0
  8
LAYER1
 62
     5
 10
1.92050000000048
 20
51.18566017177981
 30
0.0
 11
2.447339828220588
 21
51.71250000000001
 31
0.0
  0
ARC
  5
1A1
  8
LAYER1
 62
     5
 10
2.981160171780282
 20
50.12500000000001
 30
0.0
 40
1.499999999999972
 50
135.0
 51
225.0
  0
LINE
  5
1A2
  8
LAYER1
 62
     5
 10
2.974179656440787
 20
54.36066017177998
 30
0.0
 11
2.447339828220588
 21
54.8875
 31
0.0
  0
LINE
  5
1A3
  8
LAYER1
 62
     5
 10
2.974179656440787
 20
52.2393398282202
 30
0.0
 11
2.447339828220588
 21
51.71250000000001
 31
0.0
  0
ARC
  5
1A4
  8
LAYER1
 62
     5
 10
1.913519484660986
 20
53.29999999999999
 30
0.0
 40
1.500000000000102
 50
315.0000000000051
 51
45.000000000005
  0
LINE
  5
1A5
  8
LAYER1
 62
     5
 10
1.92050000000048
 20
42.71433982822021
 30
0.0
 11
2.447339828220588
 21
42.18750000000001
 31
0.0
  0
LINE
  5
1A6
  8
LAYER1
 62
     5
 10
1.92050000000048
 20
44.83566017177981
 30
0.0
 11
2.447339828220588
 21
45.3625
 31
0.0
  0
ARC
  5
1A7
  8
LAYER1
 62
     5
 10
2.981160171780282
 20
43.77500000000001
 30
0.0
 40
1.499999999999972
 50
135.0
 51
225.0
  0
LINE
  5
1A8
  8
LAYER1
 62
     5
 10
2.974179656440787
 20
48.01066017177998
 30
0.0
 11
2.447339828220588
 21
48.5375
 31
0.0
  0
LINE
  5
1A9
  8
LAYER1
 62
     5
 10
2.974179656440787
 20
45.8893398282202
 30
0.0
 11
2.447339828220588
 21
45.3625
 31
0.0
  0
ARC
  5
1AA
  8
LAYER1
 62
     5
 10
1.913519484660986
 20
46.95
 30
0.0
 40
1.500000000000102
 50
315.0000000000051
 51
45.000000000005
  0
LINE
  5
1AB
  8
LAYER1
 62
     5
 10
1.92050000000048
 20
36.3643398282202
 30
0.0
 11
2.447339828220588
 21
35.83750000000001
 31
0.0
  0
LINE
  5
1AC
  8
LAYER1
 62
     5
 10
1.92050000000048
 20
38.48566017177981
 30
0.0
 11
2.447339828220588
 21
39.01250000000001
 31
0.0
  0
ARC
  5
1AD
  8
LAYER1
 62
     5
 10
2.981160171780282
 20
37.425
 30
0.0
 40
1.499999999999972
 50
135.0
 51
225.0
  0
LINE
  5
1AE
  8
LAYER1
 62
     5
 10
2.974179656440787
 20
41.66066017177999
 30
0.0
 11
2.447339828220588
 21
42.18750000000001
 31
0.0
  0
LINE
  5
1AF
  8
LAYER1
 62
     5
 10
2.974179656440787
 20
39.53933982822021
 30
0.0
 11
2.447339828220588
 21
39.01250000000001
 31
0.0
  0
ARC
  5
1B0
  8
LAYER1
 62
     5
 10
1.913519484660986
 20
40.60000000000002
 30
0.0
 40
1.500000000000097
 50
315.0000000000048
 51
45.0000000000048
  0
LINE
  5
1B1
  8
LAYER1
 62
     5
 10
1.92050000000048
 20
30.0143398282202
 30
0.0
 11
2.447339828220588
 21
29.4875
 31
0.0
  0
LINE
  5
1B2
  8
LAYER1
 62
     5
 10
1.92050000000048
 20
32.1356601717798
 30
0.0
 11
2.447339828220588
 21
32.66250000000001
 31
0.0
  0
ARC
  5
1B3
  8
LAYER1
 62
     5
 10
2.981160171780282
 20
31.07500000000001
 30
0.0
 40
1.499999999999972
 50
134.9999999999999
 51
225.0
  0
LINE
  5
1B4
  8
LAYER1
 62
     5
 10
2.974179656440787
 20
35.31066017177999
 30
0.0
 11
2.447339828220588
 21
35.83750000000001
 31
0.0
  0
LINE
  5
1B5
  8
LAYER1
 62
     5
 10
2.974179656440787
 20
33.18933982822021
 30
0.0
 11
2.447339828220588
 21
32.66250000000001
 31
0.0
  0
ARC
  5
1B6
  8
LAYER1
 62
     5
 10
1.913519484660986
 20
34.25000000000001
 30
0.0
 40
1.500000000000097
 50
315.0000000000048
 51
45.0000000000048
  0
LINE
  5
1B7
  8
LAYER1
 62
     5
 10
1.92050000000048
 20
23.6643398282202
 30
0.0
 11
2.447339828220588
 21
23.1375
 31
0.0
  0
LINE
  5
1B8
  8
LAYER1
 62
     5
 10
1.92050000000048
 20
25.7856601717798
 30
0.0
 11
2.447339828220588
 21
26.3125
 31
0.0
  0
ARC
  5
1B9
  8
LAYER1
 62
     5
 10
2.981160171780282
 20
24.725
 30
0.0
 40
1.499999999999972
 50
135.0
 51
225.0
  0
LINE
  5
1BA
  8
LAYER1
 62
     5
 10
2.974179656440787
 20
28.96066017177999
 30
0.0
 11
2.447339828220588
 21
29.4875
 31
0.0
  0
LINE
  5
1BB
  8
LAYER1
 62
     5
 10
2.974179656440787
 20
26.8393398282202
 30
0.0
 11
2.447339828220588
 21
26.3125
 31
0.0
  0
ARC
  5
1BC
  8
LAYER1
 62
     5
 10
1.913519484660986
 20
27.9
 30
0.0
 40
1.500000000000105
 50
315.0000000000051
 51
45.00000000000509
  0
LINE
  5
1BD
  8
LAYER1
 62
     5
 10
1.92050000000048
 20
17.3143398282202
 30
0.0
 11
2.447339828220588
 21
16.7875
 31
0.0
  0
LINE
  5
1BE
  8
LAYER1
 62
     5
 10
1.92050000000048
 20
19.4356601717798
 30
0.0
 11
2.447339828220588
 21
19.9625
 31
0.0
  0
ARC
  5
1BF
  8
LAYER1
 62
     5
 10
2.981160171780282
 20
18.375
 30
0.0
 40
1.499999999999972
 50
135.0
 51
225.0
  0
LINE
  5
1C0
  8
LAYER1
 62
     5
 10
2.974179656440787
 20
22.61066017177998
 30
0.0
 11
2.447339828220588
 21
23.1375
 31
0.0
  0
LINE
  5
1C1
  8
LAYER1
 62
     5
 10
2.974179656440787
 20
20.4893398282202
 30
0.0
 11
2.447339828220588
 21
19.9625
 31
0.0
  0
ARC
  5
1C2
  8
LAYER1
 62
     5
 10
1.913519484660986
 20
21.55
 30
0.0
 40
1.5000000000001
 50
315.0000000000048
 51
45.0000000000049
  0
LINE
  5
1C3
  8
LAYER1
 62
     5
 10
1.92050000000048
 20
10.9643398282202
 30
0.0
 11
2.447339828220588
 21
10.4375
 31
0.0
  0
LINE
  5
1C4
  8
LAYER1
 62
     5
 10
1.92050000000048
 20
13.0856601717798
 30
0.0
 11
2.447339828220588
 21
13.6125
 31
0.0
  0
ARC
  5
1C5
  8
LAYER1
 62
     5
 10
2.981160171780282
 20
12.025
 30
0.0
 40
1.499999999999972
 50
135.0
 51
225.0
  0
LINE
  5
1C6
  8
LAYER1
 62
     5
 10
2.974179656440787
 20
16.26066017177998
 30
0.0
 11
2.447339828220588
 21
16.7875
 31
0.0
  0
LINE
  5
1C7
  8
LAYER1
 62
     5
 10
2.974179656440787
 20
14.1393398282202
 30
0.0
 11
2.447339828220588
 21
13.6125
 31
0.0
  0
ARC
  5
1C8
  8
LAYER1
 62
     5
 10
1.913519484660986
 20
15.2
 30
0.0
 40
1.500000000000099
 50
315.0000000000048
 51
45.00000000000485
  0
LINE
  5
1C9
  8
LAYER1
 62
     5
 10
1.92050000000048
 20
6.735660171779801
 30
0.0
 11
2.447339828220588
 21
7.262499999999999
 31
0.0
  0
ARC
  5
1CA
  8
LAYER1
 62
     5
 10
2.981160171780282
 20
5.675
 30
0.0
 40
1.50000000000002
 50
135.0
 51
179.9999999999994
  0
LINE
  5
1CB
  8
LAYER1
 62
     5
 10
2.974179656440787
 20
9.91066017177998
 30
0.0
 11
2.447339828220588
 21
10.4375
 31
0.0
  0
LINE
  5
1CC
  8
LAYER1
 62
     5
 10
2.974179656440787
 20
7.789339828220198
 30
0.0
 11
2.447339828220588
 21
7.262499999999999
 31
0.0
  0
ARC
  5
1CD
  8
LAYER1
 62
     5
 10
1.913519484660986
 20
8.85
 30
0.0
 40
1.500000000000099
 50
315.0000000000048
 51
45.00000000000485
  0
LINE
  5
1CE
  8
LAYER1
 62
     5
 10
185.6311601717801
 20
2.5
 30
0.0
 11
3.068660171780262
 21
2.5
 31
0.0
  0
LINE
  5
1CF
  8
LAYER1
 62
     5
 10
3.068660171780262
 20
91.39999999999999
 30
0.0
 11
217.9881139980456
 21
91.39999999999999
 31
0.0
  0
LINE
  5
1D0
  8
LAYER1
 62
     5
 10
1.481160171780262
 20
177.1249999999998
 30
0.0
 11
3.068660171780262
 21
177.1249999999998
 31
0.0
  0
LINE
  5
1D1
  8
LAYER1
 62
     5
 10
3.068660171780262
 20
177.1249999999998
 30
0.0
 11
3.068660171780262
 21
180.2999999999998
 31
0.0
  0
LINE
  5
1D2
  8
LAYER1
 62
     5
 10
1.481160171780262
 20
94.57500000000002
 30
0.0
 11
3.068660171780262
 21
94.57500000000002
 31
0.0
  0
LINE
  5
1D3
  8
LAYER1
 62
     5
 10
1.481160171780262
 20
88.2249999999999
 30
0.0
 11
3.068660171780262
 21
88.2249999999999
 31
0.0
  0
LINE
  5
1D4
  8
LAYER1
 62
     5
 10
3.068660171780262
 20
94.57500000000002
 30
0.0
 11
3.068660171780262
 21
88.2249999999999
 31
0.0
  0
LINE
  5
1D5
  8
LAYER1
 62
     5
 10
1.481160171780262
 20
5.675
 30
0.0
 11
3.068660171780262
 21
5.675
 31
0.0
  0
LINE
  5
1D6
  8
LAYER1
 62
     5
 10
3.068660171780262
 20
5.675
 30
0.0
 11
3.068660171780262
 21
2.5
 31
0.0
  0
LINE
  5
1D7
  8
LAYER1
 62
     5
 10
96.73116017178026
 20
358.0999999999996
 30
0.0
 11
96.73116017178026
 21
2.5
 31
0.0
  0
LINE
  5
1D8
  8
LAYER1
 62
     5
 10
222.1436843951079
 20
231.099980163772
 30
0.0
 11
209.4436743007799
 21
231.0999801637718
 31
0.0
  0
LINE
  5
1D9
  8
LAYER1
 62
     5
 10
209.4436743007799
 20
231.0999801637718
 30
0.0
 11
209.4436843951079
 21
180.2999801637721
 31
0.0
  0
ENDSEC
  0
EOF
