TAB: Ferdinando Carulli - Op 241, Morceaux Progressifs No 10 in D

7 views
Skip to first unread message

onis...@gmail.com

unread,
Mar 2, 2016, 9:50:01 PM3/2/16
to
Op 241 Morceaux Progressifs No 10 - Andante grazioso in D - Ferdinando Carulli
Edited to the Launer, Paris (2250) 6th edition, ~1825
video: http://www.youtube.com/watch?v=C9edTG0pOxI - Norbert Neunzling
MIDI: http://www.classtab.org/carulli_op241_morceaux_progressifs_no10_in_d.mid
tabbed by Weed - we...@wussu.com - 3 March 2016

See below the tab for the Notes and Legend

Tuning : E A D G B E Key Signature: D Time Signature: 2/4

Andante grazioso (slowly, at a walking pace, smoothly, gracefully)

0 . , | , . , | , . ,
E|--5-4-----3-|-2-------2-------2===--5-3-----2-|
B|------------|---------3-------3===------------|
G|*-----------|---------------------------------|
D|*-----------|---------0-------0===------------|
A|------------|---------------------------------|
E|------------|---------------------------------|
4 1
mf (mezzo forte - medium loud)

2 | , . , | , . , | , . , | , . ,
E|-0-------0-------0===--3-2-----0-|-----------------0-------0-------|
B|---------2-------2===------------|-3-------3-----------------------|
G|---------------------------------|-----------------2-------2-------|
D|---------------------------------|-4-------4-----------------------|
A|---------0-------0===------------|---------------------------------|
E|---------------------------------|---------------------------------|
2 2 1
3

4 | , . , | , . , | , . , | , . ,
E|-2-----3-4-----5-0===--5-4-----3-|-2-------2-------2===--5-4-----2-|
B|-----------------2===------------|---------3-------3===------------|
G|---------------------------------|---------------------------------|
D|-0===============----------------|---------0-------0===------------|
A|-----------------0===------------|---------------------------------|
E|---------------------------------|---------------------------------|

6 | , . , | , . , | , . , | , . ,
E|-0-------0-------0===--5-4-----2-|-----0---------------------------|
B|---------2-------2===------------|-----2-------3-------2-------0---|
G|---------------------------------|-------------4-------2-------1---|
D|---------------------------------|---------0=======2=======--------|
A|---------0-------0===------------|-4=======------------------------|
E|---------------------------------|-------------------------0=======|
f (forte - loud) 2
3

8 | , . , | , . , | , . , | , . ,
E|-------------0-----------|------------|-0-------0-------0===----------0-|
B|---------2---------------|----2-----3-|---------2-------2===----3-------|
G|-----2-----------2===---*|*-2---------|-----------------------2---------|
D|------------------------*|*-----------|---------------------------------|
A|-0===============0===----|------------|---------0-------0===------------|
E|-------------------------|------------|---------------------------------|
1 2 3 1 2
mf (mezzo forte - medium loud)

10 | , . , | , . , | , . , | , . ,
E|-2-------2-------2===----0-----2-|-3-------3-------2-------2-------|
B|---------3-------3===------------|-2-------2-------3-------3-------|
G|-----------------------2---------|---------------------------------|
D|---------------------------------|---------------------------------|
A|---------0-------0===------------|-0===============0===============|
E|---------------------------------|---------------------------------|
1 2 2 1
3 1 2

12 | , . , | , . , | , . , | , . ,
E|-0-------0-----2-0===------------|-0-------0-------0===----------0-|
B|-------4-----------------2-----3-|---------2-------2===----3-------|
G|-----------------------2---------|-----------------------2---------|
D|---------------------------------|---------------------------------|
A|-0===============0===============|---------0-------0===------------|
E|---------------------------------|---------------------------------|
3

14 | , . , | , . , | , . , | , . ,
E|-2-------2-------2===----0-----2-|-3-------3-------2-------2-------|
B|---------3-------3===------------|-2-------2-------3-------3-------|
G|-----------------------2---------|---------------------------------|
D|---------------------------------|---------------------------------|
A|---------0-------0===------------|-0===============0===============|
E|---------------------------------|---------------------------------|

F.
16 | , . , | , . , | , . , | , . ,
E|-0===============------5-4-----3-|-2-------2-------2===--5-3-----2-|
B|-2===============----------------|---------3-------3===------------|
G|---------------------------------|---------------------------------|
D|---------------------------------|---------0-------0===------------|
A|-0===============----------------|---------------------------------|
E|---------------------------------|---------------------------------|

18 | , . , | , . , | , . , | , . ,
E|-0-------0-------0===--3-2-----0-|-----------------0-------0-------|
B|---------2-------2===------------|-3-------3-----------------------|
G|---------------------------------|-----------------2-------2-------|
D|---------------------------------|-4-------4-----------------------|
A|---------0-------0===------------|---------------------------------|
E|---------------------------------|---------------------------------|

20 | , . , | , . , | , . , | , . ,
E|-2-----3-4-----5-0===--5-4-----3-|-2-------2-------2===--5-3-----2-|
B|-----------------2===------------|---------3-------3===------------|
G|---------------------------------|---------------------------------|
D|-0===============----------------|---------3-------3===------------|
A|-----------------0===------------|---------------------------------|
E|---------------------------------|---------------------------------|

22 | , . , | , . , | , . , | , . ,
E|-0-------0-------0===--3-2-----0-|-------------0-------2-------0---|
B|---------2-------2===------------|-----3-------0-------3-------2---|
G|---------------------------------|-----2---0=======2=======--------|
D|---------------------------------|-4=======------------------------|
A|---------0-------0===------------|-------------------------0=======|
E|---------------------------------|---------------------------------|
3 2 1 2
1 3

24 | , . , | ,
E|------------------------||
B|-----3------------------||
G|---------2-------------*||
D|-0===========4---0===--*||
A|------------------------||
E|------------------------||
2 1 3


Notes and Legend
-----------
The tempo of the Norbert Neunzling video and the MIDI is 50 bpm (quarter notes).

left hand fingering (below tab) 1 - index
2 - middle
3 - ring
4 - little

=== - note held
F. - (above the tab) Fermata - pause

|--- ---|
|--- ---|
|*-- --*| repeat the section
|*-- --*|
|--- ---|
|--- ---|

-------------------------------------------------------------------------------

more classical tabs at http://www.classtab.org

oniscoid

unread,
Sep 15, 2022, 1:50:01 AMSep 15
to
On Thursday, 3 March 2016 at 02:50:01 UTC, oniscoid wrote:
> Op 241 Morceaux Progressifs No 10 - Andante grazioso in D - Ferdinando Carulli
<snip>

*** CORRECTION ***

Op 241 Morceaux Progressifs No 10 - Andante grazioso in D - Ferdinando Carulli
Edited to the Launer, Paris (2250) 6th edition, ~1825
see Notes below - tab by we...@wussu.com - 3 March 2016 - updated 15 Sep 2022
Tuning : E A D G B E Key Signature: D major Time Signature: 2/4
22 | , . , | , . , | , . , | , . ,
E|-0-------0-------0===--3-2-----0-|-------------0-------2-------0---|
B|---------2-------2===------------|-----3-------0-------3-------2---|
G|---------------------------------|-----2---0=======2=======--------|
D|---------------------------------|-4=======------------------------|
A|---------0-------0===------------|-------------------------0=======|
E|---------------------------------|---------------------------------|
3 2 1 2
1 3

24 | , . , | ,
E|------------------------||
B|-----3------------------||
G|---------2-------------*||
D|-0===========4---0===--*||
A|------------------------||
E|------------------------||
2 1 3


Notes and Legend
~~~~~~~~~~~~~~~~
updated 15 September 2022 by we...@wussu.com - correction by Peter Henderson
measure 21 - the 2 notes on the 4th string changed from F (3rd fret) to D (open)

The tempo of the Norbert Neunzling video and the MIDI is 50 bpm (quarter notes).

left hand fingering (below the tab) 1 - index (forefinger)
2 - middle
3 - ring (annular)
4 - little (pinky)

=== - length of note, duration, note held
F. - (above the tab) Fermata - pause

|--- ---|
|--- ---|
|*-- --*| repeat the section
|*-- --*|
|--- ---|
|--- ---|

~~~~~~~~~~~~~~~~~~~~~~~~~~~~~~~~~~~~~~~~~~~~~~~~~~~~~~~~~~~~~~~~~~~~~~~~~~~~~~~~

the latest version of this tab can be found at http://www.classtab.org
if you come across any mistakes please let me know - we...@wussu.com

Reply all
Reply to author
Forward
0 new messages