TAB: Leonhard Schulz - Op 40, 12 Studien fur Gitarre - No 10 in Am

2 views
Skip to first unread message

oniscoid

unread,
Aug 20, 2022, 4:02:40 AMAug 20
to
Op 40, 12 Studien fur Gitarre - No 10 in Am - Leonhard Schulz (1813-1860)
edition: Josef Zuth, Schott 31571 (Mainz, Germany, 1927)
see Notes and Legend below - tab by we...@wussu.com - 9 July 2022
MIDI: http://www.classtab.org/schulz_op40_12_studien_10_in_am.mid
video: https://youtu.be/e_WJnGJnF20?t=13 - Otto Tolonen
video: https://www.youtube.com/watch?v=YQpQCP9LYvA - Harald Stampa

standard tuning: E A D G B E key: A minor time: 12/8

Agitato (agitated)

1 | . . | . . | . . | . .
e|----------0--------12-10----------------0--------------------0-----------|
B|-------1-----10-13-------13-12-10----------3--1--0--------------1--0-----|
G|----2-----------------------------12-10-------------2--1--2-----------2--|
D|-------------------------------------------------------------------------|
A|-0=======================================================================|
E|-------------------------------------------------------------------------|
p 1 4 3 1 4 3 1 3 1

2 | . . | . . | . . | . .
e|----------1-----------------1-----------------1--------------------------|
B|-------------3--1--0-----------3--1--0-----------3--1--0-----------------|
G|-2-p1--1--------------2--1---------------2--1-------------2--1-----------|
D|----------------------------------------------------------------3--2--0--|
A|-0===========0=====0===========0=====0===========0=====0===========0=====|
E|-------------------------------------------------------------------------|

3 | . . | . . | . . | . .
e|----------0--------12-10----------------0--------------------0-----------|
B|-------1-----10-13-------13-12-10----------3--1--0--------------1--0-----|
G|----2-----------------------------12-10-------------2-p1--2-----------2--|
D|-------------------------------------------------------------------------|
A|-3-----------------0=====================================================|
E|-5=====------------------------------------------------------------------|
2
4

4 | . . | . . | . . | . .
e|----------1-----------------1-----------------1--------------------------|
B|-------------3--1--0-----------3--1--0-----------3--1--0-----------------|
G|-2-p1--1--------------2--1--------------2--1--------------2--1-----------|
D|----------------------------------------------------------------3--2--0--|
A|=============0=====0===========0=====0===========0=====0===========0=====|
E|-------------------------------------------------------------------------|

5 | . . | . . | . . | . .
e|----------------1--5-p3--1--0-----------------0-----------------0--------|
B|-------------1-----------------3--1--1-h2--------------1-h2--------------|
G|----------2--------------------------------3-----0--3--------3-----0--3--|
D|-------3-----------------------------------------------------------------|
A|-3--3--------------------------------------------------------------------|
E|-5-----------------------------1=====0===========0=====0===========0=====|
3 4 4 2 1

6 | . . | . . | . . | . .
e|----------------1--5-p3--1--0-----------------0-----------------0--------|
B|-------------1-----------------3--1--1-h2--------------1-h2--------------|
G|-2--------2--------------------------------3-----0--3--------3-----0--3--|
D|-------3-----------------------------------------------------------------|
A|----3--------------------------------------------------------------------|
E|-1-----------------------------1=====3===========0=====3===========0=====|

C3________________ C3____
7 | . . | . . | . . | . .
e|----------------1--5--0-h1--------------------------3--6--2--3-----------|
B|-------------1--------------2--3-----------------3--------------4--5-----|
G|-2--------2-----------------------2--3--------3-----------------------3--|
D|-------3-----------------------------------5-----------------------------|
A|----3-----------------------------------5--------------------------------|
E|-1-----------------------------1=====3=================------------3=====|
3 4

c5________________
8 | . . | . . | . . | . .
e|-------------5--6--8-p6--5-----------0-----------------3-p2--1--2--1--2--|
B|----------6-----------------8--6--5-----3--2-h3--2--3--------------------|
G|-5-----5-----------------------------3===========3=====2===========------|
D|----7--------------------------7=====------------------------------0=====|
A|-0=================------------------------------------------------------|
E|-------------------------------------------------------------------------|
3 2 2 4 2 3 1 4 3 1
3 2

9 | . . | . . | . . | . .
e|2g11p10-9--10-3--5--8-p6--5--6-----2--3---h5p3-1--3--6--5--5-p3--3--1--0-----|
B|--------------------------------3-----------------------------------------3--|
G|--0===================================---------------------------------------|
D|-----------------------------------------------------------------------------|
A|-----------------------------------------------------------------------------|
E|--------------------------------------0====================------------0=====|
3 3 2 1 4 2 1 ritard. 2 4 2 1 4 3 1 3 1

a tempo risoluto (played resolutely with firmness)
10 | . . | . . | . . | . .
e|----------------------------------------5--------------1-----------------|
B|-3-p2-----------------------2--2--2--3--------3--3--3--------------------|
G|----------2--2--2--3-p0-----------------------------------1--------------|
D|----------------------------------------------------------------3--2--0--|
A|-------0=====0=====------0=====0=====------0=====0=====------0=====0=====|
E|-------------------------------------------------------------------------|
f

11 | . . | . . | . . | . .
e|----------------------------------------5--------------1-----------------|
B|----------------------------2--2--2--3--------3--3--3--------------------|
G|----------2--2--2--3-p0-----------------------------------1--------------|
D|-0--------------------------------------------------------------3--2--0--|
A|----4--0=====0=====------0=====0=====------0=====0=====------0=====0=====|
E|-------------------------------------------------------------------------|

C9_______________________________
12 | . . | . . | . . | . .
e|----------------0--5-----------0-----9--------------9--12----------9--12/|
B|-------------2--------------2-----10-------------10-------------10-------|
G|----------2--------------2--------------------9--------------9-----------|
D|-------2--------------2--------------------11-------------11-------------|
A|----4-----------------------------------12-------------------------------|
E|-5=====------------------------------------------------------------------|
2 4 3 1
< < < < < < < < < < < < < < < < < <

13 | . . | . . | . . | . .
e|/19----------------------------0-----------------------------------------|
B|-------------------------------------2-----------------3=====------------|
G|-------2-----3===========0-----------0-----------------------------------|
D|-------------------------------2-----2-----------------3=====------------|
A|-------0-----1-----1-----1-----------0-----------------1=====------------|
E|-------------------3=================------------------------------------|
ff > > > > > > > > > > > > >

C3
> > > >
14 | . . | . . | . . | . .
e|-------------6=====------------------------------5=====------------------|
B|-------5-----------------------------------2-----------------------------|
G|-------3-----3=====------------------------2-----2=====------------------|
D|-------5-----5=====------------------------5-----5=====------------------|
A|-------------------------------------------0-----4=====------------------|
E|-------3-----0=====------------------------------------------------------|
4 4
2 3
p 2

C10_______________
15 | . . | . . | . . | . .
e|-------------10-13-17-15-13-12-------------------0-----------5--1--0-----|
B|----------10-------------------15-13-11-10----------3--2--3-----------3--|
G|-------10----------------------------------12-10-------------------------|
D|----12-------------0=====================================================|
A|-------------------------------------------------------------------------|
E|-10================------------------------------------------------------|
p 3 4 4 4 2 1 4 2 2 1 3 1

16 | . . | . . | . . | . .
e|----------6--3-----0--------6--3-----0--------6--3-----0-----------------|
B|-3--2--2--------6-----3--2--------6-----3--2--------6-----3--2-----------|
G|----------------------------------------------------------------3--2--0--|
D|=============0=====0===========0=====0===========0=====0===========0=====|
A|-------------------------------------------------------------------------|
E|-------------------------------------------------------------------------|
4 1 4

17 | . . | . . | . . | . .
e|-------------10-13-17-15-13-12-------------------0-----------5--1--0-----|
B|----------10-------------------15-13-11-10----------3--2--3-----------3--|
G|-------10----------------------------------12-10-------------------------|
D|-3--12-------------0=====================================================|
A|-5-----------------------------------------------------------------------|
E|-------------------------------------------------------------------------|

18 | . . | . . | . . | . .
e|----------6--3-----0--------6--3-----0--------6--3-----0-----------------|
B|-3--2--2--------6-----3--2--------6-----3--2--------6-----3--2-----------|
G|----------------------------------------------------------------3--2--0--|
D|=============0=====0===========0=====0===========0=====0===========0=====|
A|-------------------------------------------------------------------------|
E|-------------------------------------------------------------------------|

c6____
19 | . . | . . | . . | . .
e|----------------6--10p8--6--5-----------------8-----------------8--------|
B|-------------6-----------------8--6--6-h7--------------6-h7--------------|
G|----------7--------------------------------8-----5--8--------8-----5--8--|
D|-3-----8-----------------------------------------------------------------|
A|-5--8--------------------------------0===========0=====0===========0=====|
E|-------------------------------------------------------------------------|
3 4 2 4 2 2 1 4 2 1 2 3 4 1

C6________________
20 | . . | . . | . . | . .
e|----------------6--10p8--6--5-----------------8-----------------8--------|
B|-------------6-----------------8--6--6-h7--------------6-h7--------------|
G|-7--------7--------------------------------8-----5--8--------8-----5--8--|
D|-------8-----------------------------------------------------------------|
A|----8--------------------------------0===========0=====0===========0=====|
E|-6-----------------------------------------------------------------------|

C6________________ c1____c5____
21 | . . | . . | . . | . .
e|----------------6--10p6--------------------------2-----5-----8-----6--5--|
B|-------------6-----------8-----------------4-----------------------------|
G|-7--------7-----------------7-----0-----------2-----5-----8--------7--5--|
D|-------8-----------------------8--------4-----------------------0--------|
A|----8--------------------------------0=================------------------|
E|-6-----------------------------------------------------------------------|
4 1 4 2 3 3 4 3 4 2 4
3 3

C3________________
22 | . . | . . | . . | . .
e|-3--------------3--6-p3--------------------8-----4-----1-----------------|
B|-------------3-----------4--------------9-----6-----3--------1-----------|
G|-3--------3-----------------3-----------------------------1--------3--1--|
D|-------5-----------------------5-----0===========------------------0-----|
A|----5-----------------------------6-----------------------------1--------|
E|-3-----------------------------------------------------------------------|
3 4 4 1 2 1 3 4 3 2 3 1 3 1 1 2 1 4

c3___________________ C4__________________________________
23 | . . | . . | . . | . .
e|----------------3--6-p3-----------------------------4--8-p4--------------|
B|-------------4-----------4-----------------------4-----------4-----------|
G|-0--------3-----------------3-----------------5-----------------5--------|
D|-1-----5-----------------------5-----------6-----------------------6-----|
A|----6-----------------------------6-----6-----------------------------6--|
E|-------------------------------------4-----------------------------------|
4 3 2 3 4 2 4 2 4 3

C5__________________________________C6__________________________________
24 | . . | . . | . . | . .
e|----------------5--8--5-----------------------------6--10p6--------------|
B|-------------6-----------6-----------------------6-----------6-----------|
G|----------5-----------------5-----------------7-----------------7--------|
D|-------7-----------------------7-----------8-----------------------8-----|
A|----8-----------------------------8-----8-----------------------------8--|
E|-5-----------------------------------6-----------------------------------|
4 3 2 4 2 3 4 3 4 2 4 2 4 3

C7__________________________________C8____________________________C7____
25 | . . | . . | . . | . .
e|----------------7--10p7-----------------------------8--11-------11----11-|
B|-------------8-----------8-----------------------8--------8--9-----7-----|
G|----------7-----------------7-----------------8--------------------------|
D|-------9-----------------------9-----------10----------------10====10====|
A|----10----------------------------10----10-------------------------------|
E|-7-----------------------------------8-----------------------------------|
4 1 2 4 1 4
3 3

C7__________________________________C6________________
26 | . . | . . | . . | . .
e|----10p7--------7-----------------------------------8--10-------10----10-|
B|-8--------8--------8-----------------------------6--------6--7-----5-----|
G|-------------7--------7-----7-----------------6--------------------------|
D|-9=====------------------9-----9-----------8-----------------8=====8=====|
A|----------------------------------10----8--------------------------------|
E|-------------------------------------6-----------------------------------|
2 4 2 2 3 3 4 3 4 4 1 2 4 1 4
3 3 3

c5____________________________
27 | . . | . . | . . | . .
e|----8-p5--------5-----------------------8--5--------5--------------------|
B|-6--------6--------6-----------------4--------7--4-----7-p4--1-----------|
G|-------------5--------5-----5-----------------------------------2--------|
D|-7=====------------------7-----7-----------------------------------4-p1--|
A|----------------------------------8--0===================================|
E|-------------------------------------------------------------------------|
2 4 2 2 3 4 1 4 1 3 1 2 4 1
3

ritard.
28 | . . | . . | . . | . .
e|----------0--------12-10----------------0--------------------------------|
B|-------1-----10-13-------13-12-10----------3--1--0-----------------------|
G|----2-----------------------------12-10-------------2--1-----------------|
D|-2--------------------------------------------------------3--2--0--------|
A|-------------------------------------------------------------------3--2--|
E|-------------------------------------0=================0===========0=====|

29 | . . | . . | . . | . .
e|------------------------------------------------------------------------||
B|------------------------------------------------------------------------||
G|------------------------------------------------------------------------||
D|------------------------------------------------------------------------||
A|-0===================================-----------------------------------||
E|-5===================================-----------------------------------||


Notes and Legend
~~~~~~~~~~~~~~~~
Both the Leonhard Schulz edition and the JG Holm MS transcription are missing
some of the accidentals, especially flat signs for the Bs.

The tempo of the MIDI is 94 bpm (beats per minute - quarter notes).

measure 12 - the sheet fingering isn't clear (there is no barre on the 9th fret)
measure 12 - in the JG Holm transcription the crescendo is for the whole measure
measure 13 - the Otto Tolonen video follows the JG Holm transcription, playing
an octave interval (A-A) on the 1st beat -

|
e|/17--
B|-----
G|-14--
D|-----
A|-----
E|-----

left hand fingering (LHF) below the tab -
1 - index finger (forefinger)
2 - middle finger
3 - ring finger (annular)
4 - little finger (pinky)

=== - note held, length of note, duration
/ - slide the note up
< < < - (below the tab) crescendo - growing louder
> > > - (below the tab) decrescendo - growing softer
Agitato - agitated, with emotion, excited, fast, hurried, restless, anxious
f - forte - loud, strong
ff - fortissimmo - very loud
g - grace note, ornament - an extra note played immediately before the
main note - at the start of measure 9 it is played as a slide up to
the 11th fret - the hammer-on and pull-off on the 3rd beat of the
measure are also shown as grace notes in the sheet
h - hammer-on
p - (beneath the tab) piano - soft, quiet
p - (between the notes) pull-off
risoluto - bold, resolute, energetic
ritard. - ritardando - slowing down

c1 - part barre on the 1st fret
C1 - barre on the 1st fret
c2 - part barre on the 2nd fret
C2 - barre on the 2nd fret [etc]

~~~~~~~~~~~~~~~~~~~~~~~~~~~~~~~~~~~~~~~~~~~~~~~~~~~~~~~~~~~~~~~~~~~~~~~~~~~~~~~~

the latest version of this tab can be found at http://www.classtab.org
if you come across any mistakes please let me know - we...@wussu.com

Reply all
Reply to author
Forward
0 new messages