TAB: Dionisio Aguado - Op 6 Part 1, Lesson 10 in G

10 views
Skip to first unread message

onis...@gmail.com

unread,
Nov 19, 2014, 1:54:32 AM11/19/14
to
Op 6 Part 1, Lesson 10 in G - Dionisio Aguado (1784-1849)
Nuevo Metodo de Guitarra (Campo, Madrid, 1840)

tabbed by Weed - 19 November 2014 - we...@wussu.com

MIDI: http://www.classtab.org/aguado_op06_p1_l10.mid

see the Legend below the tab

tuning: E A D G B E key: G time: 3/4


1 | . | . | . | . | . | .
e|--------0-----------------|-------------------------|
B|--3-------3-------2-------|-3---------------0-------|
G|*-4=======4-------3-------|-4---------------0-------|
D|*-------------------------|-------------------------|
A|--------------------------|-------------------------|
E|--------------------------|-------------------------|

3 | . | . | . | . | . | .
e|-----------------0-------|-0-----------------------|
B|-1-----0-1-------1-------|-1---------------3===----|
G|-2=======2---------------|-----------------4===----|
D|-------------------------|-------------------------|
A|-------------------------|-------------------------|
E|-------------------------|-------------------------|

5 | . | . | . | . | . | .
e|-------0-----------------|-------------------------|
B|-3-------3-------2-------|-3---------------0-------|
G|-4=======4-------3-------|-4---------------0-------|
D|-------------------------|-------------------------|
A|-------------------------|-------------------------|
E|-------------------------|-------------------------|

7 | . | . | . | . | . | .
e|-------------------------|--------------------------|
B|-1-----0-1---------------|--------------------------|
G|-2=======2-------2-------|-0=======----------------*|
D|-----------------4-------|-------------------------*|
A|-------------------------|--------------------------|
E|-------------------------|--------------------------|

9 | . | . | . | . | . | .
e|--------------------------|-------------------------|
B|------------------1-------|-1---------------0-------|
G|*-2-----0-2-------2-------|-2---------------0-------|
D|*-4=======4---------------|-------------------------|
A|--------------------------|-------------------------|
E|--------------------------|-------------------------|

11 | . | . | . | . | . | .
e|-----------------0-------|-0-----------------------|
B|-1-----0-1-------1-------|-1---------------4-------|
G|-2=======2---------------|-----------------3-------|
D|-------------------------|-------------------------|
A|-------------------------|-------------------------|
E|-------------------------|-------------------------|

13 | . | . | . | . | . | .
e|-----------------3-------|-7===============3-------|
B|-3---2---3---------------|-0=======================|
G|-4---3---4===============|-0=======================|
D|-------------------------|-------------------------|
A|-------------------------|-------------------------|
E|-------------------------|-------------------------|

15 | . | . | . | . | . | .
e|---------1-----0-1-------|-3------------------------||
B|---------1=======1-------|-0===============---------||
G|-------------------------|-0===============--------*||
D|-0===============--------|-------------------------*||
A|-------------------------|--------------------------||
E|-------------------------|--------------------------||


Legend
------

=== - note held

|---- ----|
|---- ----|
|*--- ---*| repeat the
|*--- ---*| section
|---- ----|
|---- ----|

******************************************************************************

more classical tabs at http://www.classtab.org

oniscoid

unread,
Aug 29, 2022, 12:46:14 AMAug 29
to
On Wednesday, 19 November 2014 at 06:54:32 UTC, oniscoid wrote:
> Op 6 Part 1, Lesson 10 in G - Dionisio Aguado (1784-1849)
> Nuevo Metodo de Guitarra (Campo, Madrid, 1840)
<snip>

*** CORRECTION ***

Op 6 Part 1, Lesson 10 in G - Dionisio Aguado (1784-1849)
Nuevo Metodo de Guitarra (Campo, Madrid, 1840)
tabbed by Weed - 19 November 2014 - we...@wussu.com
last update 29 August 2022 - see Notes and Legend below
MIDI: http://www.classtab.org/aguado_op06_p1_l10.mid

tuning: E A D G B E key: G major time: 3/4
B|-1-----0-1-------1-------|-1---------------3-------|
G|-2=======2---------------|-----------------4-------|
D|-------------------------|-------------------------|
A|-------------------------|-------------------------|
E|-------------------------|-------------------------|

13 | . | . | . | . | . | .
e|-----------------3-------|-7===============3-------|
B|-3---2---3---------------|-0=======================|
G|-4---3---4===============|-0=======================|
D|-------------------------|-------------------------|
A|-------------------------|-------------------------|
E|-------------------------|-------------------------|

15 | . | . | . | . | . | .
e|---------2-----0-2-------|-3------------------------||
B|---------1=======1-------|-0===============---------||
G|-------------------------|-0===============--------*||
D|-0===============--------|-------------------------*||
A|-------------------------|--------------------------||
E|-------------------------|--------------------------||


Notes and Legend
~~~~~~~~~~~~~~~~
updated 29 August 2022 - we...@wussu.com
measure 12 - 2nd interval changed from D#-Bb to D-B
measure 15 - both intervals C-F changed to C-F#

=== - length of note, note held, duration

|---- ----|
|---- ----|
|*--- ---*| repeat the
|*--- ---*| section
|---- ----|
|---- ----|

~~~~~~~~~~~~~~~~~~~~~~~~~~~~~~~~~~~~~~~~~~~~~~~~~~~~~~~~~~~~~~~~~~~~~~~~~~~~~~~

the latest version of this tab can be found at http://www.classtab.org
if you come across any mistakes please let me know - we...@wussu.com

Reply all
Reply to author
Forward
0 new messages