TAB: Eduardo Martín - Canciones del Calendario - 2. Febrero (February)

2 views
Skip to first unread message

oniscoid

unread,
Oct 1, 2021, 12:50:23 PM10/1/21
to
Canciones del Calendario - 2. Febrero (February) - Eduardo Martin (born 1956)
(a Galy y Dario) - edition: Guitar Solo Publ. GSP-252 (San Francisco, 2007)
see Notes and Legend below - tabbed by we...@wussu.com - 26 September 2021
MIDI: http://www.classtab.org/martin_canciones_del_calendario_02_febrero.mid
video: https://www.youtube.com/watch?v=nQ3d7_t6V68 - Thomas Uriarte

tuning: EADGBE key: E minor time: 4/4 tempo: 104 bpm (quarter notes)

Andante (flowing, at a walking pace)

1 | . | . | . | . | . | . | . | .
e|-0-0---0-0---0-0---0-0---0---0---|-0-0---0-0---0-0---0-0---0---0---|
B|-0-0---0-0---0-0---0-0---0---0---|-0-0---0-0---0-0---0-0---0---0---|
G|-0-0---0-0---0-0---0-0---0---0---|-0-0---0-0---0-0---0-0---0---0---|
D|---------------------------------|---------------------------------|
A|---------------------------------|-------------------------------7=|
E|---------------------------------|---------------------------7-10--|
sempre marcato 1 4 1
(emphasised throughout the piece) cantando il basso
p (let the bass sing out)

3 | . | . | . | . | . | . | . | .
e|--0-0---0-0---0-0---0-0---0---0---|-0-0---0-0---0-0---0-0---0---0---|
B|--0-0---0-0---0-0---0-0---0---0---|-0-0---0-0---0-0---0-0---0---0---|
G|*-0-0---0-0---0-0---0-0---0---0---|-0-0---0-0---0-0---0-0---0---0---|
D|*-------------------------9p7---0-|-------------------------9p7---0-|
A|------------------------------10--|-7=======================----10--|
E|==========================--------|-8=======================--------|
3 1 4

c3 c2 c7 1_________________________________
5 | . | . | . | . | . | . | . | .
e|-0-0---0-0---0-0---0-0---0---0---|-0-0---0-0---0-0---0-0---0---0----|
B|-0-0---0-0---0-0---0-0---0---0---|-0-0---0-0---0-0---0-0---0---0----|
G|-0-0---0-0---0-0---0-0---0---0---|-0-0---0-0---0-0---0-0---0---0---*|
D|-2=====================5===4===9=|===========================------*|
A|-3=====================3===2===7=|===========================----7==|
E|-5=====================3===2===7=|===========================7-10---|
1 3 3 3
2
4

2_________________________________
7 | . | . | . | . | . | . | . | .
e|-0-0---0-0---0-0---0-0---0---0---|--0-0---0-0---0-0---0-0---0---0---|
B|-0-0---0-0---0-0---0-0---0---0---|--8-8---8-8---8-8---8-8---8---8---|
G|-0-0---0-0---0-0---0-0---0---0---|*-0-0---0-0---0-0---0-0---0---0---|
D|===========================----9=|*===========----8===========----7=|
A|===========================7-10--|------------7-10------------7-10--|
E|===========================------|----------------------------------|
2 2 2 2
1 4 3 1 4 1 1 4 1

9 | . | . | . | . | . | . | . | .
e|-0-0---0-0---0-0---0-0---0---0---|-0-0---0-0---0-0---0-0---0---0---|
B|-8-8---8-8---8-7---7-7---7---3---|-3-3---3-3---3-3---3-3---3---3---|
G|-0-0---0-0---0-0---0-0---0---0---|-0-0---0-0---0-0---0-0---0---0---|
D|===========================5===--|---------------------------5===--|
A|-------------------------------3=|===========================----2=|
E|---------------------------------|---------------------------------|
2 4 2 1 1

11 | . | . | . | . | . | . | . | .
e|-0-0---0-0---0-0---0-0---0---0---|-0-0---0-0---0-0---0-0---0---0---|
B|-3-3---3-3---3-3---3-3---3---3---|-3-3---3-3---3-2---2-2---2---2---|
G|-0-0---0-0---0-0---0-0---0---0---|-0-0---0-0---0-0---0-0---0---0---|
D|---------------------------5===--|---------------------------------|
A|===========================----0=|===========================----0=|
E|---------------------------------|---------------------------3===--|
2

1_________________________________
13 | . | . | . | . | . | . | . | .
e|-0-0---0-0---0-0---0-0---0---0---|-0-0---0-0---0-0---0-0---0---0----|
B|-1-1---1-1---1-1---1-1---1---1---|-0-0---0-0---0-0---0-0---0---0----|
G|-0-0---0-0---0-0---0-0---0---0---|-0-0---0-0---0-0---0-0---0---0---*|
D|---------------------------------|-------------------------------9=*|
A|=========================2-0-----|-7=========================7-10---|
E|-----------------------------3-0-|----------------------------------|
1 2 3 1

2_________________________________
15 | . | . | . | . | . | . | . | .
e|-0-0---0-0---0-0---0-0---0---0---|-0-0---0-0---0-0---0-0---0---0---|
B|-0-0---0-0---0-0---0-0---0---0---|-0-0---0-0---0-0---0-0---0---0---|
G|-0-0---0-0---0-0---0-0---0---0---|-0-0---0-0---0-0---0-0---0---0---|
D|---------------------------------|-------------------------9p7---0-|
A|-7=========================----7=|=========================----10--|
E|---------------------------7-10--|---------------------------------|

c2
17 | . | . | . | . | . | . | . | .
e|-0-0---0-0---0-0---0-0---0---0---|-0-0---0-0---0-0---0-0---0---0---|
B|-0-0---0-0---0-0---0-0---0---0---|-0-0---0-0---0-0---0-0---0---0---|
G|-0-0---0-0---0-0---0-0---0---0---|-0-0---0-0---0-0---0-0---0---0---|
D|-------------------------9p7---0-|-2=============2===========2===2=|
A|-7=======================----10--|-3=============3===========3===3=|
E|-8=======================--------|-5=============3===========3===2=|
1 1
2 3 3
4 2

poco rit. F.
19 | . | . | . | . | . | . | . | .
e|-0-0---0-0---0-----------0-------|---------------------------------||
B|-0-0---0-0---0---------0---0-----|---------------------------------||
G|-0-0---0-0---0-------5-------7-9=|=====----------------------------||
D|===============----4-------------|-----2---------------------------||
A|===============0h2=========--5-7=|=====2---------------------------||
E|===============------------7-----|-----0---------------------------||
3 4 4 4 2
1 3 1 1 1


Notes and Legend
~~~~~~~~~~~~~~~~
The order of play is measures 1-6, 1-5, 7-14, 8-13, 15-20.
The MIDI is 96 bpm (a little slower than the tempo given in the sheet).

Left Hand Fingering (LHF) below the tab -
1 - index finger (forefinger)
2 - middle finger
3 - ring finger
4 - little finger (pinkie)

=== - length of note, note held, duration
bpm - beats per minute (quarter notes)
c2 - part barre on the 2nd fret
c3 - part barre on the 3rd fret
c7 - part barre on the 7th fret
F. - Fermata - pause, notes or rests held for longer than their value
p - (below the tab) piano - soft, quietly
p - (between the notes) pull-off
mf - mezzoforte - moderately loud
poco - little, a little
rit. - slowing down, suddenly slower (poco rit. - a little slower)

repeat the section 1____ play the 1st time 2_______ play on repeat
|---- ----| |-----------------------| ---|-----------------------|
|---- ----| |-----------------------| ---|-----------------------|
|*--- ---*| |----------------------*| --*|-----------------------|
|*--- ---*| |----------------------*| --*|-----------------------|
|---- ----| |-----------------------| ---|-----------------------|
|---- ----| |-----------------------| ---|-----------------------|

~~~~~~~~~~~~~~~~~~~~~~~~~~~~~~~~~~~~~~~~~~~~~~~~~~~~~~~~~~~~~~~~~~~~~~~~~~~~~~~

the latest version of this tab can be found at http://www.classtab.org
if you come across any mistakes please let me know - we...@wussu.com

Reply all
Reply to author
Forward
0 new messages