TAB: Mauro Giuliani - 24 Etudes - Op 48 No 13, Study in C

11 views
Skip to first unread message

onis...@gmail.com

unread,
Jan 24, 2014, 9:28:33 PM1/24/14
to
24 Etudes - Op 48 No 13, Study in C - Mauro Giuliani (1781-1840)

tabbed by Weed - 19 January 2013 - we...@wussu.com

MIDI - http://www.classtab.org/giuliani_op048_13.mid
video - http://www.youtube.com/watch?v=zg5KeP9aa30 (Adam Catt)

see below the tab for Notes and Legend

tuning: E A D G B E key: C time: 4/4

Maestoso (Majestic)
a m i m a i m i
1 | . | . | . | . | . | . | . | .
e|-----------------0---1---3---2---|-3-------3---2---3-------3---0---|
B|-1-------1---3-------------------|---------------------------------|
G|---0---0---0---0---0---0---0---0-|---0---0---0---0---0---0---0---0-|
D|-----4---------------0===2===1===|-2=======2===1===2=======2===----|
A|-3===========2===3===------------|-----3---------------3-------4===|
E|---------------------------------|---------------------------------|
1 4 1 4 1 4 3 4 3 4 3...3 2 3
3 2 3 2 1 2 2 1...3 1 4

acc.
3 | . | . | . | . | . | . | . | .
e|---------------------0--3p1---0---|-1-------1---0---1-------1-------|
B|-6-------0---1---3----------------|-----------------------------3---|
G|---0---0---0---0---0---0----0---0-|---0---0---0---0---0---0---0---0-|
D|-----4--------------------0===----|-0=======0===----0=======0===----|
A|-5=======----0===2===3====----4===|-------------4===------------2---|
E|---------3===---------------------|-----3---------------3-----------|
4 1 1 4 3 1 1 3 1 1 3 1 4
2 3 2 3 4 4 2

cII_____________________________
5 | . | . | . | . | . | . | . | .
e|-0---------------0---1---3---1---|---------------------5---4---3---|
B|---------1---3-------------------|-5-------2---3---5---------------|
G|---0---0---0---0---0---0---0---0-|---2-3-2---2---2---2---2---2---2-|
D|-----4---2===--------0===2===0===|---------------------------------|
A|-3=======----2===3===------------|-4=======--------0=======--------|
E|---------------------------------|---------------------------------|
4 1 4 1 4 1 4 2 2 4 4 3 2
3 2 2 3 2 3

7 | . | . | . | . | . | . | . | .
e|-3---1---0---1-------3---2---1---|-0-------1-------0-------1-------|
B|---------------------------------|-----1-------3-------1-------3---|
G|---2---2---2---2---0---0---0---0-|---0---0---0---0---0---0---0---0-|
D|-0=======------------------------|---------------------------------|
A|-----------------2=======--------|-3=======2=======3=======2=======|
E|---------------------------------|---------------------------------|
4 2 1 1 4 3 1 1 1 4
2 3 2
> > > > > > > > > > > > > > > >

9 | . | . | . | . | . | . | . | .
e|---------------0---1---3---5---7-|---8---7---8---10-12======------0-|
B|-1===--1---3---------------------|------------------------------1---|
G|-0===----------------0===2===4===|-5===4===5===7====9=======--3-----|
D|-2===----0===2===3===------------|----------------------------------|
A|-3===3===------------------------|--------------------------3=======|
E|---------------------------------|----------------------------------|
1 1 3 1 2 4...4.....4...4...4...4..4 4 1
2
3 2 3 1...1.....1...1...1...1....1 3
< < < < < < < < < < < < < < < < < < < < < <

CI__ CIV_____
11 | . | . | . | . | . | . | . | .
e|-1===--1---3---5---6---8---10---12-|---14--13--13--15-17======--------|
B|-1===------------------------------|--------------------------------4-|
G|-2===----0===2===3===5===7====9====|-10==9===10==12===14======----5---|
D|-----3===--------------------------|----------------------------4-----|
A|-----------------------------------|----------------------------------|
E|-1===------------------------------|--------------------------4=======|
2 1 2 4...4...4....4......4...4...4...4..4 2
3 1...1...1...1....1......1...1...1...1....1
< < < < < < < < < < < < < < < < < < < < < < <

13 | . | . | . | . | . | . | . | .
e|-0=======----------0---0---3-2-3-|---8---7---6---5---3---2---1---0-|
B|-1=======--1---1-----4-----------|---------------------------------|
G|-0=======----4-----------0=======|-5===4===3===2===0===------------|
D|-----------------2=======--------|---------------------4===3===2===|
A|---------3=======----------------|---------------------------------|
E|-3=======------------------------|---------------------------------|
1 1 4 1 4 2 1 2 4...4...4...4...2 1...1
3 3 2 1...1...1...1 3...3 2

p i m p i m i p i m a p i m a p i m a
CVII______________________________
15 | . | . | . | . | . | . | . | .
e|---------------------------------|---------7-----7-10======--------|
B|-3=======--------0=====0---------|-8-----8-----8-----------0-------|
G|---------0=====0-----0---7=====7-|-----7-----7-------------0-------|
D|-------0-----0-----0---------9---|---9---------------------3-------|
A|-----2-----2---------------10----|---------------------------------|
E|---3-----------------------------|-------------------------3-------|
4 3 2 4 3 2 3 2 2 4 4
3

17 | . | . | . | . | . | . | . | .
e|---------------------1-----------|---------------------1-----------|
B|-1-------1---2---3-------3---0---|-1-------1---2---3-------3---0---|
G|---0---0---0---0---0---0---0---0-|---0---0---0---0---0---0---0---0-|
D|-----2---------------------------|-----2---------------------------|
A|-3=======--------2=======--------|-3=======--------2=======--------|
E|-------------------------3=======|-------------------------3=======|
1 2 1...1 4 1 4
3 2 3

p i m a p i m a p i m a p i m a p i m a p i m a
CVIII___________________________
19 | . | . | . | . | . | . | . | .
e|-------------------------0=======|---------8=====8-12======3=======|
B|-1=======--------1=====1---------|-8=====8-----8-----------0=======|
G|---------0=====0-----0---------9-|-----9-----9-------------0=======|
D|-------2-----2-----2---------10--|---10----------------------------|
A|-----3-----3---------------10----|---------------------------------|
E|---3-----------------------------|-------------------------3=======|
1 3 4 2 3 4 2 2 4 4
3

21 | . | . | . | .
e|-0===============----------------||
B|-1===============----------------||
G|-0===============----------------||
D|-2===============----------------||
A|-3===============----------------||
E|---------------------------------||
1
2
3


Notes
-----

Edition used - Berben 1354, Ancona, Italy

Measures 15,16 - some editions have a barre on the 3rd fret -

CIII______________CVII____________
15 | . | . | . | . | . | . | . | .
e|---------------------------------|-3-----3-7-----7-10======--------|
B|-3=======--------0=====0-3=====3-|-----3-------8-----------0-------|
G|---------0=====0-----0-------4---|---4-------7-------------0-------|
D|-------0-----0-----0-------5-----|-------------------------3-------|
A|-----2-----2---------------------|---------------------------------|
E|---3-----------------------------|-------------------------3-------|
4 3 2 3 2 2 2 4 4
3

Legend
------

left hand fingering below the tab right hand fingering above the tab
1 - index finger p - thumb
2 - middle finger i - index finger
3 - ring finger m - middle finger
4 - little finger a - annular (ring) finger

===== - note held
acc. - acciacatura - a 'grace note' -- the note is played immediately before
or at the same time as the following note
p - pull-off

CI____ - full barre on the 1st fret
cII___ - part barre on the 2nd fret
CIII__ - full barre on the 3rd fret
CIV___ - full barre on the 4th fret
CVII__ - full barre on the 7th fret
CVIII_ - full barre on the 8th fret

< < < - crescendo - becoming louder
> > > - decrescendo - becoming softer

******************************************************************************

more classical tabs at http://www.classtab.org

oniscoid

unread,
Nov 27, 2022, 5:58:34 PM11/27/22
to
On Saturday, 25 January 2014 at 02:28:33 UTC, oniscoid wrote:
> 24 Etudes - Op 48 No 13, Study in C - Mauro Giuliani (1781-1840)
<snip>

*** CORRECTION TO MEASURE 12 ***

24 Etudes - Op 48 No 13, Study in C - Mauro Giuliani (1781-1840)
edition: Berben 1354, Ancona, Italy
tabbed by we...@wussu.com - 19 January 2013
last updated 27 November 2022 - see Notes & Legend below
e|-1===--1---3---5---6---8---10---12-|---13--12--13--15-17======--------|
Notes & Legend
~~~~~~~~~~~~~~
Thanks to Peter Henderson for the following correction (27 November 2022) -
measure 12 - 2nd note changed from F# (14th fret) to F (13th fret) and 4th
note changed from F (13th fret) to E (12th fret)

Measures 15,16 - some editions have a barre on the 3rd fret -

CIII______________CVII____________
15 | . | . | . | . | . | . | . | .
e|---------------------------------|-3-----3-7-----7-10======--------|
B|-3=======--------0=====0-3=====3-|-----3-------8-----------0-------|
G|---------0=====0-----0-------4---|---4-------7-------------0-------|
D|-------0-----0-----0-------5-----|-------------------------3-------|
A|-----2-----2---------------------|---------------------------------|
E|---3-----------------------------|-------------------------3-------|
4 3 2 3 2 2 2 4 4
3

left hand fingering below the tab right hand fingering above the tab
1 - index finger p - thumb
2 - middle finger i - index finger
3 - ring finger m - middle finger
4 - little finger a - annular (ring) finger

===== - note held
acc. - acciaccatura - a 'grace note' -- the note is played immediately before
or at the same time as the following note
p - pull-off

CI____ - full barre on the 1st fret
cII___ - part barre on the 2nd fret
CIII__ - full barre on the 3rd fret
CIV___ - full barre on the 4th fret
CVII__ - full barre on the 7th fret
CVIII_ - full barre on the 8th fret

< < < - crescendo - becoming louder
> > > - decrescendo - becoming softer

~~~~~~~~~~~~~~~~~~~~~~~~~~~~~~~~~~~~~~~~~~~~~~~~~~~~~~~~~~~~~~~~~~~~~~~~~~~~~~~~
Reply all
Reply to author
Forward
0 new messages