TAB: Franco Margola - 8 Pezzi Facili per Chitarra - 2. Novelletta 1

2 views
Skip to first unread message

oniscoid

unread,
Aug 8, 2022, 4:45:17 PMAug 8
to
8 Pezzi Facili per Chitarra - 2. Novelletta 1 - Franco Margola (1908-1992)
(8 Easy Pieces for Guitar - 2. Novelette 1)
Edition: Ricordi 132070, fingering by Renzo Cabassi, (Milan, Italy, 1973/1990)
see Notes and Legend below - tab by we...@wussu.com - 4 June 2022
MIDI: http://www.classtab.org/margola_8_pezzi_facili_2_novelletta_1.mid
vid: https://www.youtube.com/watch?v=6ZY63Ak0LRo - Norbert Neunzling

standard tuning: E A D G B E key: - time: 3/4

Tranquillo (calmly)

1 | . | . | . | . | . | . | . | . | . | . | . | .
e|-5-----------|-3-----------|-2-----------|-----0-------|
B|-----5-------|-----5-------|-----3-------|-------1-----|
G|---------5---|---------5---|---------2---|---------1---|
D|-------------|-------------|-0===========|-------------|
A|-0===========|-0===========|-------------|-------------|
E|-------------|-------------|-------------|-0===========|
4 3 2 1 3 2 2 3 1 2 1

5 | . | . | . | . | . | . | . | . | . | . | . | .
e|-5-----------|-3-----------|-2-----------|---0-------0-|
B|-----5---5---|-----5---5---|-----3---3---|-----1---1---|
G|-------5-----|-------5-----|-------2-----|-------1-----|
D|-------------|-------------|-0===========|-------------|
A|-0===========|-0===========|-------------|-------------|
E|-------------|-------------|-------------|-0===========|
4 2 1 3 2 3 2 3 1 3 2 1 2

9 | . | . | . | . | . | . | . | . | . | . | . | .
e|-------------|-------0-----|---------1---|-------3-----|
B|---------3---|-0=====--0---|-1=======----|-3=====--3---|
G|-2=======----|-------------|-------------|-------------|
D|-------------|-------------|-------------|-------------|
A|-------------|-------------|-----0-------|-----2===----|
E|-----1-------|-----3===----|-------------|-------------|
2 1 4 3 1 2 3 1 4 3

13 | . | . | . | . | . | . | . | . | . | . | . | .
e|-0---5---3---|-2-------5---|-4===--------|-------------|
B|-------------|-----0-------|-------------|-------------|
G|-------------|-------------|-------------|-------------|
D|-------------|-0-----------|-2=====3-0---|-1---2-------|
A|-3-----------|-------------|-------------|-------------|
E|-------------|-------------|-------------|---------0---|
4 2 1 4 4
1 1 2 1 2

17 | . | . | . | . | . | . | . | . | . | . | . | .
e|-5-------5---|-3-------3---|-2-------2---|-----0-------|
B|---5---5---5-|---5---5---5-|---3---3---3-|-------1-----|
G|-----5-------|-----5-------|-----2-------|---------1---|
D|-------------|-------------|-0===========|-------------|
A|-0===========|-0===========|-------------|-------------|
E|-------------|-------------|-------------|-0===========|
4 3 2 1 3 2 2 3 1 2 1

21 | . | . | . | . | . | . | . | . | . | . | . | .
e|-5-------5---|-3-------3---|-2-------2---|---0-------0-|
B|---5---5---5-|---5---5---5-|---3---3---3-|-----1---1---|
G|-----5-------|-----5-------|-----2-------|-------1-----|
D|-------------|-------------|-0===========|-------------|
A|-0===========|-0===========|-------------|-------------|
E|-------------|-------------|-------------|-0===========|
2 1 2

C2__________ C3__________
25 | . | . | . | . | . | . | . | . | . | . | . | .
e|-------------|---3-------3-|---------0---|---5-0-------|
B|---------3---|-----3---3---|-----0-------|-2===--2---2-|
G|-----2-------|-4-----4-----|-------------|-0===----4---|
D|-4===========|-5===========|-6-----------|-------------|
A|-------------|-------------|-------------|-------------|
E|-------------|-------------|-------------|-------------|
1 2 2 1 1 4 1 3 1
3 3 3

C5
29 | . | . | . | . | . | . | . | . | . | . | . | .
e|-0-----------|-------------|-----0-------|-5===--------||
B|-----3-------|-1---3---0---|---------1---|-5===--------||
G|---------2---|-------------|-2-----------|-5===--------||
D|-3-----------|-2-----------|-------------|-7===--------||
A|-------------|-------------|-0-----------|-7===--------||
E|-------------|-------------|-------------|-5===--------||
4 3 1 4 2 1
2 2


Notes and Legend
~~~~~~~~~~~~~~~~
"Eight Easy Pieces for Guitar (dC 182) is a collection of short pieces intended
for beginners. The title, however, is rather misleading; the term 'easy' in this
case is to be understood in a strictly musical sense, the pieces are indeed
shorter and simpler than usual, but from a technical standpoint, the pieces
are by no means easy."
- Franco Margola's Chamber Works with Guitar - Federico Jes Bonacossa, 2009

Franco Margola did not use key signatures in his compositions, but Study 1
appears to start and end in the key of A minor.

The tempo of the Norbert Neunzling video and the MIDI is 84 bpm (quarter notes).

left hand fingering (LHF) below the tab
1 - index finger (forefinger)
2 - middle finger
3 - ring finger (annular)
4 - little finger (pinky)

=== - length of note, note held, duration
bpm - beats per minute
C2 - barre on the 2nd fret with the 1st finger
C3 - barre on the 3rd fret with the 1st finger
C5 - barre on the 5th fret with the 1st finger

~~~~~~~~~~~~~~~~~~~~~~~~~~~~~~~~~~~~~~~~~~~~~~~~~~~~~~~~~~~~~~~~~~~~~~~~~~~~~~~~

the latest version of this tab can be found at http://www.classtab.org
if you come across any mistakes please let me know - we...@wussu.com

Reply all
Reply to author
Forward
0 new messages