TAB: Matthew Dunne - 20 Miniatures - No 5

6 views
Skip to first unread message

oniscoid

unread,
Oct 9, 2021, 2:15:24 PM10/9/21
to
20 Miniatures - No 5 - Matthew Dunne (born 1959)
Guitar Solo Publications GSP-269 (San Francisco, 2010)
see Notes & Legend below - tab by we...@wussu.com - 1 October 2021
MIDI: http://www.classtab.org/dunne_20_miniatures_05.mid
video: https://www.youtube.com/watch?v=9gE2fC47M7Q - Pablo Romero Luis
video: https://www.youtube.com/watch?v=HWUVX5WGtds - Jean-Luc Kusnierek

tuning: EADGBE key: A major time: 4/4 tempo: 120 bpm (1/4 notes)

1 | . | . | . | . | . | . | . | .
e|-0---------------0---------------|-0---------------0---------------|
B|---------0---------------0-------|---------0---------------0-------|
G|-----6-------6-------6-------6---|-----8-------8-------8-------8---|
D|-------7-------7-------7-------7-|-------6-------6-------6-------6-|
A|---0-------0-------0-------0-----|---0-------0-------0-------0-----|
E|---------------------------------|---------------------------------|
2 3 4 1

3 | . | . | . | . | . | . | . | .
e|-0---------------0---------------|-0---------------0---------------|
B|---------0---------------0-------|---------0---------------0-------|
G|-----7-------7-------6-------6---|-----6-------6-------6-------6---|
D|-------5-------5-------5-------5-|-------4-------4-------4-------4-|
A|---0-------0-------0-------0-----|---0-------0-------0-------0-----|
E|---------------------------------|---------------------------------|
3 1 4 1

5 | . | . | . | . | . | . | . | .
e|-0---------------0---------------|-0---------------0---------------|
B|---------0---------------0-------|---------0---------------0-------|
G|-----6-------6-------5-------5---|-----2-------2-------2-------2---|
D|-------3-------3-------3-------3-|-------2-------2-------2-------2-|
A|---0-------0-------0-------0-----|---4-------4-------4-------4-----|
E|---------------------------------|---------------------------------|
3 4 2 1

7 | . | . | . | . | . | . | . | .
e|-0---------------0---------------|-0---------------0---------------|
B|---------0---------------0-------|---------0---------------2-------|
G|-----2-------2-------2-------2---|-----2-------2-------1-------1---|
D|-------1-------1-------1-------1-|-------0-------0-------3-------3-|
A|---3-------3-------3-------3-----|---2-------2---------------------|
E|---------------------------------|-------------------0-------0-----|
3 1 3 4 1 2

c2________________________
9 | . | . | . | . | . | . | . | .
e|-4---------------4---------------|-0---------------0---------------|
B|---------2---------------2-------|---------0---------------0-------|
G|-----4-------4-------4-------4---|-----0-------0-------0-------0---|
D|-------2-------2-------2-------2-|-------0-------0-------0-------0-|
A|---0-------0-------0-------0-----|---3-------3-------3-------3-----|
E|---------------------------------|---------------------------------|
2

C2______________________________
11 | . | . | . | . | . | . | . | .
e|-2-------------------------------|-0-------------------------------|
B|---------3-------2-------3-------|---------3-------2-------3-------|
G|-----2-------2-------2-------2---|-----0-------0-------0-------0---|
D|-------5-------5-------5-------5-|-------3-------3-------3-------3-|
A|---2-------2-------2-------2-----|---1-------1-------1-------1-----|
E|---------------------------------|---------------------------------|
1 4
C4______________________________
13 | . | . | . | . | . | . | . | .
e|-7-------------------------------|-4---------------0---------------|
B|---------5-------4-------5-------|---------0---------------0-------|
G|-----4-------4-------4-------4---|-----0-------0-------0-------0---|
D|-------6-------6-------6-------6-|-------0-------2-------4-------4-|
A|---0-------0-------0-------0-----|---3-------3-------3-------3-----|
E|---------------------------------|---------------------------------|
4 2

C2______________________________ c6______________________________
15 | . | . | . | . | . | . | . | .
e|-2---------------5---------------|-6---------------8---------------|
B|---------3---------------3-------|---------6---------------8-------|
G|-----2-------2-------2-------2---|-----7-------7-------7-------7---|
D|-------4-------4-------4-------4-|-------6-------6-------6-------6-|
A|---2-------2-------2-------2-----|---------------------------------|
E|---------------------------------|---0-------0-------0-------0-----|

c4______________________________
17 | . | . | . | . | . | . | . | .
e|-7---------------7---------------|-4---------------4---------------|
B|---------0---------------0-------|---------4---------------4-------|
G|-----5-------5-------5-------5---|-----5-------5-------5-------5---|
D|-------5-------5-------5-------5-|-------4-------4-------4-------4-|
A|---0-------0-------0-------0-----|---0-------0-------0-------0-----|
E|---------------------------------|---------------------------------|
4 2 1

C2______________________________
19 | . | . | . | . | . | . | . | .
e|-5---------------5---------------|-2---------------2---------------|
B|---------0---------------0-------|---------3---------------3-------|
G|-----0-------0-------0-------0---|-----2-------2-------2-------2---|
D|-------4-------4-------4-------4-|-------2-------2-------2-------2-|
A|---------------------------------|---3-------3-------3-------3-----|
E|---3-------3-------3-------3-----|---------------------------------|
4 1

21 | . | . | . | . | . | . | . | .
e|-2---------------2---------------|-0-------------------------------|
B|---------3---------------3-------|---------3-------2-------3-------|
G|-----2-------2-------2-------2---|-----3-------3-------3-------3---|
D|-------0-------0-------0-------0-|-------2-------2-------2-------2-|
A|---1-------1-------1-------1-----|---0-------0-------0-------0-----|
E|---------------------------------|---------------------------------|
3 1 2 4

23 | . | . | . | . | . | . | . | .
e|-0-------------------------------|-0-------------------------------|
B|---------3-------2-------0-------|---------3-------2-------0-------|
G|-----4-------4-------4-------4---|-----4-------4-------4-------4---|
D|-------3-------3-------3-------3-|-------3-------3-------3-------3-|
A|---------------------------------|---------------------------------|
E|---4-------4-------4-------4-----|---3-------3-------3-------3-----|
3 4 2 1 2 3 1

25 | . | . | . | . | . | . | . | .
e|-7---------------10------8-------|-7---------------5---------------|
B|---------0-----------------------|---------0---------------0-------|
G|-----0-------0-------0-------0---|-----0-------0-------0-------0---|
D|-------0-------0-------0-------0-|-------7-------7-------7-------7-|
A|---------------------------------|---9-------9-------8-------8-----|
E|---8-------8-------8-------8-----|---------------------------------|
1 2 1 4 2 1 4 3

27 | . | . | . | . | . | . | . | .
e|-3---------------5-------3-------|-2---------------2---------------|
B|---------0-----------------------|---------4---------------4-------|
G|-----0-------0-------0-------5---|-----4-------4-------3-------3---|
D|-------4-------4-------4-------6-|-------5-------5-------5-------5-|
A|---------------------------------|---0-------0-------0-------0-----|
E|---0-------0-------0-------0-----|---------------------------------|
1 2 4 3 4 1

c2______________
29 | . | . | . | . | . | . | . | .
e|-0---------------2---------------|-3---------------5---------------|
B|---------2---------------2-------|---------0---------------0-------|
G|-----3-------3-------3-------3---|-----0-------0-------0-------0---|
D|-------4-------4-------4-------4-|-------4-------4-------4-------4-|
A|---5-------5-------5-------5-----|---4-------4-------3-------3-----|
E|---------------------------------|---------------------------------|
4 2 1 2

C2______________________________ C1______________________________
31 | . | . | . | . | . | . | . | .
e|-2-------------------------------|-1-------------------------------|
B|---------3-------2-------3-------|---------3-------1-------3-------|
G|-----2-------2-------2-------2---|-----1-------1-------1-------1---|
D|-------2-------2-------2-------2-|-------3-------3-------3-------3-|
A|---2-------2-------2-------2-----|---1-------1-------1-------1-----|
E|---------------------------------|---------------------------------|

33 | . | . | . | . | . | . | . | .
e|-0---------------0---------------|-0---------------0---------------|
B|---------0---------------0-------|---------0---------------0-------|
G|-----6-------6-------6-------6---|-----8-------8-------8-------8---|
D|-------7-------7-------7-------7-|-------6-------6-------6-------6-|
A|---0-------0-------0-------0-----|---0-------0-------0-------0-----|
E|---------------------------------|---------------------------------|

35 | . | . | . | . | . | . | . | .
e|-0---------------0---------------|-0---------------0---------------|
B|---------0---------------0-------|---------0---------------0-------|
G|-----7-------7-------6-------6---|-----6-------6-------6-------6---|
D|-------5-------5-------5-------5-|-------4-------4-------4-------4-|
A|---0-------0-------0-------0-----|---0-------0-------0-------0-----|
E|---------------------------------|---------------------------------|

37 | . | . | . | . | . | . | . | .
e|-0---------------0---------------|-0---------------0---------------|
B|---------0---------------0-------|---------0---------------0-------|
G|-----6-------6-------5-------5---|-----2-------2-------2-------2---|
D|-------3-------3-------3-------3-|-------2-------2-------2-------2-|
A|---0-------0-------0-------0-----|---4-------4-------3-------3-----|
E|---------------------------------|---------------------------------|

C5______________________________ a tempo
39 | . | . | . | . | . | . | . | .
e|-5---------------5---------------|-7---------------7---------------|
B|---------5---------------5-------|---------0---------------0-------|
G|-----7-------7-------7-------7---|-----6-------6-------6-------6---|
D|-------7-------7-------7-------7-|-------6-------6-------6-------6-|
A|---------------------------------|---0-------0-------0-------0-----|
E|---7-------7-------6-------6-----|---------------------------------|
1 rit. 4

c2______________________________
41 | . | . | . | . | . | . | . | .
e|-4---------------4---------------|-4---------------4---------------|
B|---------0---------------0-------|---------2---------------2-------|
G|-----5-------5-------5-------5---|-----4-------4-------4-------4---|
D|-------4-------4-------4-------4-|-------2-------2-------2-------2-|
A|---0-------0-------0-------0-----|---0-------0-------0-------0-----|
E|---------------------------------|---------------------------------|
1

rit. arp.
43 | . | . | . | . | . | . | . | .
e|-0---------------0---------------|-0-------------------------------||
B|---------0---------------0-------|-0-------------------------------||
G|-----5-------5-------5-------5---|-2-------------------------------||
D|-------4-------4-------4-------4-|-2-------------------------------||
A|---0-------0-------0-------0-----|-0-------------------------------||
E|---------------------------------|---------------------------------||
3 2

Notes and Legend
~~~~~~~~~~~~~~~~
"While I have indicated many of the fingerings I use, I invite guitarists
to explore other options. Similarly, I feel that interpretation, dynamics,
tempi, and phrasing should be guided not only by the composer but also by
the performer. I am often delighted when I hear a performance of my music
that includes new expressive ideas. The indicated tempi are suggestions,
not specific requirements." - Matthew Dunne

The tempo of the MIDI is 112 bpm (a little slower than given in the sheet).

left hand fingering (LHF) below the tab -
1 - index finger (forefinger)
2 - middle finger
3 - ring finger
4 - little finger (pinkie)

=== - note held, length of note
arp. - arpeggiate - ripple upwards from the lowest note to the highest note
bpm - beats per minute
rit. - ritenuto - slowing down, suddenly slower
tempo - speed (a tempo - return to the original tempo)

c1 - part barre on the 1st fret
C1 - barre on the 1st fret
c2 - part barre on the 2nd fret
C2 - barre on the 2nd fret [etc]

~~~~~~~~~~~~~~~~~~~~~~~~~~~~~~~~~~~~~~~~~~~~~~~~~~~~~~~~~~~~~~~~~~~~~~~~~~~~~~~~

the latest version of this tab can be found at http://www.classtab.org
if you come across any mistakes please let me know - we...@wussu.com

Reply all
Reply to author
Forward
0 new messages